  0
SECTION
  2
HEADER
  9
$ACADVER
  1
AC1009
  9
$INSBASE
 10
0.0
 20
0.0
 30
0.0
  9
$EXTMIN
 10
41.702295252927627
 20
-2.714274859009318
 30
0.0
  9
$EXTMAX
 10
50.202295252927648
 20
8.2857251409906816
 30
4.0822803423119884
  9
$LIMMIN
 10
0.0
 20
0.0
  9
$LIMMAX
 10
12.0
 20
9.0
  9
$ORTHOMODE
 70
     0
  9
$REGENMODE
 70
     1
  9
$FILLMODE
 70
     1
  9
$QTEXTMODE
 70
     0
  9
$MIRRTEXT
 70
     1
  9
$DRAGMODE
 70
     2
  9
$LTSCALE
 40
1.0
  9
$OSMODE
 70
     0
  9
$ATTMODE
 70
     1
  9
$TEXTSIZE
 40
0.2668963168731815
  9
$TRACEWID
 40
0.05
  9
$TEXTSTYLE
  7
STANDARD
  9
$CLAYER
  8
0
  9
$CELTYPE
  6
BYLAYER
  9
$CECOLOR
 62
   256
  9
$DIMSCALE
 40
1.0
  9
$DIMASZ
 40
0.18
  9
$DIMEXO
 40
0.0625
  9
$DIMDLI
 40
0.38
  9
$DIMRND
 40
0.0
  9
$DIMDLE
 40
0.0
  9
$DIMEXE
 40
0.18
  9
$DIMTP
 40
0.0
  9
$DIMTM
 40
0.0
  9
$DIMTXT
 40
0.18
  9
$DIMCEN
 40
0.09
  9
$DIMTSZ
 40
0.0
  9
$DIMTOL
 70
     0
  9
$DIMLIM
 70
     0
  9
$DIMTIH
 70
     1
  9
$DIMTOH
 70
     1
  9
$DIMSE1
 70
     0
  9
$DIMSE2
 70
     0
  9
$DIMTAD
 70
     0
  9
$DIMZIN
 70
     0
  9
$DIMBLK
  1

  9
$DIMASO
 70
     1
  9
$DIMSHO
 70
     1
  9
$DIMPOST
  1

  9
$DIMAPOST
  1

  9
$DIMALT
 70
     0
  9
$DIMALTD
 70
     2
  9
$DIMALTF
 40
25.399999999999999
  9
$DIMLFAC
 40
1.0
  9
$DIMTOFL
 70
     0
  9
$DIMTVP
 40
0.0
  9
$DIMTIX
 70
     0
  9
$DIMSOXD
 70
     0
  9
$DIMSAH
 70
     0
  9
$DIMBLK1
  1

  9
$DIMBLK2
  1

  9
$DIMSTYLE
  2
STANDARD
  9
$DIMCLRD
 70
     0
  9
$DIMCLRE
 70
     0
  9
$DIMCLRT
 70
     0
  9
$DIMTFAC
 40
1.0
  9
$DIMGAP
 40
0.09
  9
$LUNITS
 70
     2
  9
$LUPREC
 70
     4
  9
$SKETCHINC
 40
0.1
  9
$FILLETRAD
 40
0.0
  9
$AUNITS
 70
     0
  9
$AUPREC
 70
     0
  9
$MENU
  1
.
  9
$ELEVATION
 40
0.0
  9
$PELEVATION
 40
0.0
  9
$THICKNESS
 40
0.0
  9
$LIMCHECK
 70
     0
  9
$BLIPMODE
 70
     0
  9
$CHAMFERA
 40
0.5
  9
$CHAMFERB
 40
0.5
  9
$SKPOLY
 70
     0
  9
$TDCREATE
 40
2451432.6034232629
  9
$TDUPDATE
 40
2453411.407854815
  9
$TDINDWG
 40
0.3734731134
  9
$TDUSRTIMER
 40
0.3734731134
  9
$USRTIMER
 70
     1
  9
$ANGBASE
 50
0.0
  9
$ANGDIR
 70
     0
  9
$PDMODE
 70
     0
  9
$PDSIZE
 40
0.0
  9
$PLINEWID
 40
0.0
  9
$COORDS
 70
     1
  9
$SPLFRAME
 70
     0
  9
$SPLINETYPE
 70
     6
  9
$SPLINESEGS
 70
     8
  9
$ATTDIA
 70
     0
  9
$ATTREQ
 70
     1
  9
$HANDLING
 70
  4097
  9
$HANDSEED
  5
40F98
  9
$SURFTAB1
 70
     6
  9
$SURFTAB2
 70
     6
  9
$SURFTYPE
 70
     6
  9
$SURFU
 70
     6
  9
$SURFV
 70
     6
  9
$UCSNAME
  2

  9
$UCSORG
 10
0.0
 20
0.0
 30
0.0
  9
$UCSXDIR
 10
1.0
 20
0.0
 30
0.0
  9
$UCSYDIR
 10
0.0
 20
1.0
 30
0.0
  9
$PUCSNAME
  2

  9
$PUCSORG
 10
0.0
 20
0.0
 30
0.0
  9
$PUCSXDIR
 10
1.0
 20
0.0
 30
0.0
  9
$PUCSYDIR
 10
0.0
 20
1.0
 30
0.0
  9
$USERI1
 70
     0
  9
$USERI2
 70
     0
  9
$USERI3
 70
     0
  9
$USERI4
 70
     0
  9
$USERI5
 70
     0
  9
$USERR1
 40
0.0
  9
$USERR2
 40
0.0
  9
$USERR3
 40
0.0
  9
$USERR4
 40
0.0
  9
$USERR5
 40
0.0
  9
$WORLDVIEW
 70
     1
  9
$SHADEDGE
 70
     3
  9
$SHADEDIF
 70
    70
  9
$TILEMODE
 70
     1
  9
$MAXACTVP
 70
    48
  9
$PLIMCHECK
 70
     0
  9
$PEXTMIN
 10
1.0000000000000000E+020
 20
1.0000000000000000E+020
 30
1.0000000000000000E+020
  9
$PEXTMAX
 10
-1.0000000000000000E+020
 20
-1.0000000000000000E+020
 30
-1.0000000000000000E+020
  9
$PLIMMIN
 10
0.0
 20
0.0
  9
$PLIMMAX
 10
12.0
 20
9.0
  9
$UNITMODE
 70
     0
  9
$VISRETAIN
 70
     1
  9
$PLINEGEN
 70
     0
  9
$PSLTSCALE
 70
     1
  0
ENDSEC
  0
SECTION
  2
TABLES
  0
TABLE
  2
VPORT
 70
     2
  0
VPORT
  2
*ACTIVE
 70
     0
 10
0.0
 20
0.0
 11
1.0
 21
1.0
 12
46.441742956952517
 22
5.1507763207627049
 13
0.0
 23
0.0
 14
0.5
 24
0.5
 15
0.5
 25
0.5
 16
0.0
 26
0.0
 36
1.0
 17
0.0
 27
0.0
 37
0.0
 40
6.273407696550354
 41
1.6409155937052931
 42
50.0
 43
0.0
 44
0.0
 50
0.0
 51
0.0
 71
     0
 72
   100
 73
     1
 74
     1
 75
     0
 76
     0
 77
     0
 78
     1
  0
ENDTAB
  0
TABLE
  2
LTYPE
 70
     2
  0
LTYPE
  2
CONTINUOUS
 70
     0
  3
Solid line
 72
    65
 73
     0
 40
0.0
  0
LTYPE
  2
HIDDEN
 70
     0
  3
Hidden __ __ __ __ __ __ __ __ __ __ __ __ __ _
 72
    65
 73
     2
 40
0.375
 49
0.25
 49
-0.125
  0
ENDTAB
  0
TABLE
  2
LAYER
 70
     2
  0
LAYER
  2
0
 70
     0
 62
     7
  6
CONTINUOUS
  0
LAYER
  2
OBJ
 70
     0
 62
     7
  6
CONTINUOUS
  0
ENDTAB
  0
TABLE
  2
STYLE
 70
     2
  0
STYLE
  2
STANDARD
 70
     4
 40
0.0
 41
1.0
 50
0.0
 71
     0
 42
0.2668963168731815
  3
txt.shx
  4

  0
STYLE
  2
SIMPLEX
 70
     0
 40
0.0
 41
1.0
 50
0.0
 71
     0
 42
0.188
  3
simplex.shx
  4

  0
ENDTAB
  0
TABLE
  2
VIEW
 70
     0
  0
ENDTAB
  0
TABLE
  2
UCS
 70
     0
  0
ENDTAB
  0
TABLE
  2
APPID
 70
     2
  0
APPID
  2
ACAD
 70
     0
  0
APPID
  2
DCO15
 70
     0
  0
ENDTAB
  0
TABLE
  2
DIMSTYLE
 70
     1
  0
DIMSTYLE
  2
STANDARD
 70
     0
  3

  4

  5

  6

  7

 40
1.0
 41
0.18
 42
0.0625
 43
0.38
 44
0.18
 45
0.0
 46
0.0
 47
0.0
 48
0.0
140
0.18
141
0.09
142
0.0
143
25.399999999999999
144
1.0
145
0.0
146
1.0
147
0.09
 71
     0
 72
     0
 73
     1
 74
     1
 75
     0
 76
     0
 77
     0
 78
     0
170
     0
171
     2
172
     0
173
     0
174
     0
175
     0
176
     0
177
     0
178
     0
  0
ENDTAB
  0
ENDSEC
  0
SECTION
  2
BLOCKS
  0
BLOCK
  8
0
  2
$MODEL_SPACE
 70
     0
 10
0.0
 20
0.0
 30
0.0
  3
$MODEL_SPACE
  1

  0
ENDBLK
  5
1A
  8
0
  0
BLOCK
 67
     1
  8
0
  2
$PAPER_SPACE
 70
     0
 10
0.0
 20
0.0
 30
0.0
  3
$PAPER_SPACE
  1

  0
ENDBLK
  5
17
 67
     1
  8
0
  0
ENDSEC
  0
SECTION
  2
ENTITIES
  0
LINE
  5
3F28E
  8
OBJ
 10
41.702295252927641
 20
8.2857251409906816
 30
0.0
 11
50.202295252927648
 21
8.2857251409906816
 31
0.0
  0
LINE
  5
3F28F
  8
OBJ
 10
50.202295252927648
 20
-2.714274859009318
 30
0.0
 11
50.202295252927648
 21
8.2857251409906816
 31
0.0
  0
LINE
  5
3F290
  8
OBJ
 10
41.702295252927641
 20
-2.714274859009318
 30
0.0
 11
50.202295252927648
 21
-2.714274859009318
 31
0.0
  0
LINE
  5
3F291
  8
OBJ
 10
41.702295252927627
 20
-2.714274859009318
 30
0.0
 11
41.702295252927641
 21
8.2857251409906816
 31
0.0
  0
LINE
  5
3F293
  8
OBJ
  6
CONTINUOUS
 62
     7
 10
45.475995026944261
 20
5.8334099157247588
 30
0.0
 11
45.475995026944261
 21
7.7318391581001729
 31
0.0
  0
LINE
  5
3F294
  8
OBJ
  6
CONTINUOUS
 62
     7
 10
45.438219850997598
 20
6.1072043909861513
 30
0.0
 11
45.438219850997598
 21
7.504885901012627
 31
0.0
  0
LINE
  5
3F295
  8
OBJ
  6
CONTINUOUS
 62
     7
 10
42.302880247424689
 20
5.8334099157247552
 30
0.0
 11
42.302880247424689
 21
7.7318391581001729
 31
0.0
  0
LINE
  5
3F296
  8
OBJ
  6
CONTINUOUS
 62
     7
 10
42.340655423371352
 20
6.1072043909861513
 30
0.0
 11
42.340655423371352
 21
7.504885901012627
 31
0.0
  0
LINE
  5
3F2A1
  8
OBJ
  6
CONTINUOUS
 39
1.4579572651114241
 10
42.296910308649117
 20
2.7806278134734481
 30
0.0
 11
45.609016494752481
 21
2.7806278134734481
 31
0.0
  0
LINE
  5
3F2A4
  8
OBJ
  6
CONTINUOUS
 39
1.4579572651114241
 10
45.622587881539097
 20
3.2179652035064361
 30
0.0
 11
42.811635388044508
 21
3.2179652035064361
 31
0.0
  0
LINE
  5
3F2A5
  8
OBJ
  6
CONTINUOUS
 39
1.4579572651114241
 10
45.622587881539097
 20
3.6147628696050429
 30
0.0
 11
42.811635388044508
 21
3.6147628696050429
 31
0.0
  0
LINE
  5
3F2A6
  8
OBJ
  6
CONTINUOUS
 39
1.4579572651114241
 10
45.622587881539097
 20
3.4824969809055091
 30
0.0
 11
42.811635388044508
 21
3.4824969809055082
 31
0.0
  0
LINE
  5
3F2A7
  8
OBJ
  6
CONTINUOUS
 39
1.4579572651114241
 10
45.622587881539097
 20
3.3502310922059721
 30
0.0
 11
42.811635388044508
 21
3.3502310922059721
 31
0.0
  0
LINE
  5
3F2A8
  8
OBJ
  6
CONTINUOUS
 39
1.4579572651114241
 10
43.857681801075643
 20
3.1502382277477619
 30
0.0
 11
43.857681801075643
 21
4.384155663246089
 31
0.0
  0
LINE
  5
3F2EF
  8
OBJ
  6
CONTINUOUS
 39
1.4579572651114241
 10
42.631010687860687
 20
5.153675507817673
 30
0.0
 11
42.450438413945989
 21
5.153675507817673
 31
0.0
  0
LINE
  5
3F2F0
  8
OBJ
  6
CONTINUOUS
 39
1.4579572651114241
 10
42.540724550903327
 20
5.153675507817673
 30
0.0
 11
42.540724550903327
 21
5.076812275262462
 31
0.0
  0
LINE
  5
3F2F1
  8
OBJ
  6
CONTINUOUS
 39
1.4579572651114241
 10
42.450438413945989
 20
5.153675507817673
 30
0.0
 11
42.527297295207482
 21
5.153675507817673
 31
0.0
  0
TEXT
  5
3F2F4
  8
OBJ
  6
CONTINUOUS
 10
43.793228790049362
 20
2.965629347388377
 30
0.0
 40
0.0444391
  1
GROUND
  7
SIMPLEX
  0
TEXT
  5
3F2F5
  8
OBJ
  6
CONTINUOUS
 10
43.630835896826383
 20
3.0514141536696551
 30
0.0
 40
0.0444391
  1
SWITCHGEAR CHASSIS
  7
SIMPLEX
  0
TEXT
  5
3F2F6
  8
OBJ
  6
CONTINUOUS
 10
42.867019527968338
 20
2.8247964402194299
 30
0.0
 40
0.0686306894350331
  1
4 WIRE WYE: 3 ELEMENT DIRECT VOLTAGE
  7
SIMPLEX
  0
TEXT
  5
3F2F7
  8
OBJ
  6
CONTINUOUS
 10
43.503074638701939
 20
6.4388883981425948
 30
0.0
 40
0.06
  1
Vb
  7
SIMPLEX
  0
CIRCLE
  5
3F2F8
  8
OBJ
  6
CONTINUOUS
 10
43.552843535262433
 20
6.2763171493132948
 30
0.0
 40
0.0402769183160991
  0
LINE
  5
3F2F9
  8
OBJ
  6
CONTINUOUS
 10
43.620820506222231
 20
6.5086637206463784
 30
0.0
 11
43.480949139381742
 21
6.5086637206463784
 31
0.0
  0
LINE
  5
3F2FA
  8
OBJ
  6
CONTINUOUS
 10
43.480949139381742
 20
6.4272782765362768
 30
0.0
 11
43.620820506222223
 21
6.4272782765362768
 31
0.0
  0
LINE
  5
3F2FB
  8
OBJ
  6
CONTINUOUS
 62
     7
 10
44.460447196794213
 20
5.6901664485350061
 30
0.0
 11
43.31842807757473
 21
5.6901664485350061
 31
0.0
  0
LINE
  5
3F2FC
  8
OBJ
  6
CONTINUOUS
 62
     7
 10
43.816913088848693
 20
6.4153297967970042
 30
0.0
 11
42.362634739354959
 21
6.4153297967970042
 31
0.0
  0
LINE
  5
3F2FD
  8
OBJ
  6
CONTINUOUS
 62
     7
 10
43.816913088848693
 20
6.1373045018295782
 30
0.0
 11
42.362634739354959
 21
6.1373045018295791
 31
0.0
  0
LINE
  5
3F2FE
  8
OBJ
  6
CONTINUOUS
 62
     7
 10
42.416205775264672
 20
6.031654039092829
 30
0.0
 11
45.362669499104278
 21
6.031654039092829
 31
0.0
  0
LINE
  5
3F2FF
  8
OBJ
  6
CONTINUOUS
 62
     7
 10
42.302880247424689
 20
5.8334099157247552
 30
0.0
 11
45.475995026944261
 21
5.8334099157247552
 31
0.0
  0
TEXT
  5
3F30A
  8
OBJ
  6
CONTINUOUS
 10
45.433320887497842
 20
3.0310119370184379
 30
0.0
 40
0.0495997082623255
  1
IMPORT
  7
SIMPLEX
  0
TEXT
  5
3F30B
  8
OBJ
  6
CONTINUOUS
 10
45.424767552979752
 20
2.9094384781770861
 30
0.0
 40
0.0495997082623255
  1
EXPORT
  7
SIMPLEX
  0
TEXT
  5
3F30E
  8
0
 10
42.75419087085529
 20
3.2474974056651278
 30
0.0
 40
0.06
  1
A
  0
TEXT
  5
3F310
  8
0
 10
42.75419087085529
 20
3.644295071763735
 30
0.0
 40
0.06
  1
N
  0
TEXT
  5
3F311
  8
0
 10
42.75419087085529
 20
3.3797632943646629
 30
0.0
 40
0.06
  1
B
  0
TEXT
  5
3F312
  8
0
 10
42.75419087085529
 20
3.512029183064199
 30
0.0
 40
0.06
  1
C
  0
TEXT
  5
3F313
  8
OBJ
  6
CONTINUOUS
 10
42.635914335247293
 20
3.6529780195824468
 30
0.0
 40
0.0661329443497673
  1
LOAD
  0
LINE
  5
3F314
  8
OBJ
  6
CONTINUOUS
 10
43.855445942510151
 20
4.4671304417924169
 30
0.0
 11
43.843146717492139
 21
4.4339747078658132
 31
0.0
  0
LINE
  5
3F315
  8
OBJ
  6
CONTINUOUS
 10
43.924383229975042
 20
4.4671304417924169
 30
0.0
 11
43.912084004957002
 21
4.4339747078658132
 31
0.0
  0
LINE
  5
3F316
  8
OBJ
  6
CONTINUOUS
 10
43.889914586242597
 20
4.4671304417924169
 30
0.0
 11
43.877615361224557
 21
4.4339747078658132
 31
0.0
  0
SOLID
  5
3F31F
  8
OBJ
  6
BYBLOCK
 62
     0
 10
43.868633506836559
 20
4.3299882593961936
 30
0.0
 11
43.84673009531474
 21
4.3299882593961936
 31
0.0
 12
43.857681801075643
 22
4.3956984939616524
 32
0.0
 13
43.857681801075643
 23
4.3956984939616524
 33
0.0
  0
LINE
  5
3F326
  8
OBJ
  6
CONTINUOUS
 10
43.924383229975042
 20
4.4671304417924169
 30
0.0
 11
43.855445942510151
 21
4.4671304417924169
 31
0.0
  0
TEXT
  5
3F329
  8
OBJ
  6
CONTINUOUS
 10
42.247438248573047
 20
4.8889153276699311
 30
0.0
 40
0.0462023
  1
(DEPENDENT ON EQUIPPED 
  7
SIMPLEX
  0
TEXT
  5
3F32A
  8
OBJ
  6
CONTINUOUS
 10
42.25902769916749
 20
4.801431795291264
 30
0.0
 40
0.04
  1
POWER SUPPLY OPTION)
  7
SIMPLEX
  0
TEXT
  5
3F32B
  8
OBJ
  6
CONTINUOUS
 10
42.255842111026773
 20
4.977251076896847
 30
0.0
 40
0.0462023
  1
SUPPLY POWER
  7
SIMPLEX
  0
POINT
  5
3F333
  8
OBJ
  6
BYBLOCK
 62
     0
 10
42.450438413945989
 20
5.153675507817673
 30
0.0
  0
POINT
  5
3F334
  8
OBJ
  6
BYBLOCK
 62
     0
 10
42.451470047245309
 20
4.9207816773397841
 30
0.0
  0
SOLID
  5
3F335
  8
OBJ
  6
BYBLOCK
 62
     0
 10
42.551676256664237
 20
5.1309796791123574
 30
0.0
 11
42.529772845142432
 21
5.1309796791123574
 31
0.0
 12
42.540724550903327
 22
5.0652694445468986
 32
0.0
 13
42.540724550903327
 23
5.0652694445468986
 33
0.0
  0
TEXT
  5
3F337
  8
OBJ
  6
CONTINUOUS
 10
43.888239002263369
 20
5.5836044304779522
 30
0.0
 40
0.0438068230436382
  1
FUSES
  0
TEXT
  5
3F33A
  8
OBJ
  6
CONTINUOUS
 10
43.889300056625672
 20
5.2242431324618837
 30
0.0
 40
0.0438068230436382
  1
2A
  0
LINE
  5
3F33B
  8
OBJ
  6
CONTINUOUS
 10
42.73235208057676
 20
6.4272782765362768
 30
0.0
 11
42.89731735094437
 21
6.4272782765362768
 31
0.0
  0
LINE
  5
3F33C
  8
OBJ
  6
CONTINUOUS
 10
42.89362102260511
 20
6.5086637206463784
 30
0.0
 11
42.730709262953688
 21
6.5086637206463784
 31
0.0
  0
TEXT
  5
3F33D
  8
OBJ
  6
CONTINUOUS
 10
42.732283895020409
 20
6.4463700009549409
 30
0.0
 40
0.04
  1
CHASIS
 41
0.8
  7
SIMPLEX
  0
CIRCLE
  5
3F33E
  8
OBJ
  6
CONTINUOUS
 10
42.800103103361998
 20
6.2763171493132948
 30
0.0
 40
0.0402769183160991
  0
LINE
  5
3F33F
  8
OBJ
  6
CONTINUOUS
 62
     7
 10
42.793957534731291
 20
5.7649612969094024
 30
0.0
 11
43.022799550616163
 21
5.6901664485350061
 31
0.0
  0
ARC
  5
3F341
  8
OBJ
  6
CONTINUOUS
 62
     7
 10
42.416205775264672
 20
6.1072043909861513
 30
0.0
 40
0.0755503518933231
 50
180.0
 51
270.0
  0
LINE
  5
3F346
  8
OBJ
  6
CONTINUOUS
 62
     7
 10
42.793957534731291
 20
5.8334099157247588
 30
0.0
 11
42.793957534731291
 21
5.7649612969094024
 31
0.0
  0
TEXT
  5
3F347
  8
OBJ
  6
CONTINUOUS
 10
42.401233533010959
 20
6.4388883981425948
 30
0.0
 40
0.06
  1
L+
  7
SIMPLEX
  0
LINE
  5
3F348
  8
OBJ
  6
CONTINUOUS
 10
42.518979400531251
 20
6.5086637206463784
 30
0.0
 11
42.379108033690763
 21
6.5086637206463784
 31
0.0
  0
LINE
  5
3F349
  8
OBJ
  6
CONTINUOUS
 10
42.379108033690763
 20
6.4272782765362768
 30
0.0
 11
42.518979400531236
 21
6.4272782765362768
 31
0.0
  0
CIRCLE
  5
3F34A
  8
OBJ
  6
CONTINUOUS
 10
42.450438413946003
 20
6.2763171493132948
 30
0.0
 40
0.0402769183160991
  0
ARC
  5
3F34B
  8
OBJ
  6
CONTINUOUS
 10
42.379108033690763
 20
6.4935536502677182
 30
0.0
 40
0.0151100703786646
 50
90.0
 51
180.0
  0
LINE
  5
3F34C
  8
OBJ
  6
CONTINUOUS
 10
42.363997963312123
 20
6.4935536502677182
 30
0.0
 11
42.363997963312123
 21
6.4423883469149468
 31
0.0
  0
ARC
  5
3F34D
  8
OBJ
  6
CONTINUOUS
 10
42.379108033690763
 20
6.4423883469149468
 30
0.0
 40
0.0151100703786646
 50
179.9999999999971
 51
270.0
  0
LINE
  5
3F34F
  8
OBJ
  6
CONTINUOUS
 62
     7
 10
42.362634739354959
 20
6.1373045018295791
 30
0.0
 11
42.362634739354959
 21
6.4153297967970042
 31
0.0
  0
ARC
  5
3F350
  8
OBJ
  6
CONTINUOUS
 10
42.698844747369932
 20
6.495392366226433
 30
0.0
 40
0.0132763984077328
 50
352.039227202257
 51
88.420577735335499
  0
ARC
  5
3F351
  8
OBJ
  6
CONTINUOUS
 10
42.698844747369932
 20
6.440549630956232
 30
0.0
 40
0.0132763984077345
 50
271.57942226466452
 51
7.9607727977391702
  0
LINE
  5
3F352
  8
OBJ
  6
CONTINUOUS
 10
42.711993202728038
 20
6.4423883469149468
 30
0.0
 11
42.711993202728038
 21
6.4935536502677182
 31
0.0
  0
ARC
  5
3F353
  8
OBJ
  6
CONTINUOUS
 10
42.733658937553557
 20
6.4935536502677182
 30
0.0
 40
0.0151100703786646
 50
90.0
 51
180.0
  0
LINE
  5
3F354
  8
OBJ
  6
CONTINUOUS
 10
42.71854886717491
 20
6.4935536502677182
 30
0.0
 11
42.71854886717491
 21
6.4423883469149468
 31
0.0
  0
ARC
  5
3F355
  8
OBJ
  6
CONTINUOUS
 10
42.733658937553557
 20
6.4423883469149468
 30
0.0
 40
0.0151100703786646
 50
179.9999999999971
 51
270.0
  0
ARC
  5
3F357
  8
OBJ
  6
CONTINUOUS
 10
42.559339312956261
 20
6.4423883469149468
 30
0.0
 40
0.0151100703786646
 50
179.9999999999971
 51
270.0
  0
LINE
  5
3F358
  8
OBJ
  6
CONTINUOUS
 10
42.544229242577607
 20
6.4935536502677182
 30
0.0
 11
42.544229242577607
 21
6.4423883469149468
 31
0.0
  0
ARC
  5
3F359
  8
OBJ
  6
CONTINUOUS
 10
42.559339312956261
 20
6.4935536502677182
 30
0.0
 40
0.0151100703786646
 50
90.0
 51
180.0
  0
LINE
  5
3F35A
  8
OBJ
  6
CONTINUOUS
 10
42.534089470909912
 20
6.4423883469149468
 30
0.0
 11
42.534089470909912
 21
6.4935536502677182
 31
0.0
  0
ARC
  5
3F35B
  8
OBJ
  6
CONTINUOUS
 10
42.518979400531251
 20
6.4935536502677182
 30
0.0
 40
0.0151100703786646
 50
0.0
 51
90.0
  0
ARC
  5
3F35C
  8
OBJ
  6
CONTINUOUS
 10
42.518979400531236
 20
6.4423883469149468
 30
0.0
 40
0.0151100703786646
 50
270.0
 51
359.9999999999971
  0
TEXT
  5
3F35E
  8
OBJ
  6
CONTINUOUS
 10
42.57564592103278
 20
6.4388883981425948
 30
0.0
 40
0.06
  1
N-
  7
SIMPLEX
  0
CIRCLE
  5
3F35F
  8
OBJ
  6
CONTINUOUS
 10
42.63101068786068
 20
6.2763171493132948
 30
0.0
 40
0.0402769183160991
  0
LINE
  5
3F360
  8
OBJ
  6
CONTINUOUS
 10
42.559339312956261
 20
6.4272782765362768
 30
0.0
 11
42.699210679796742
 21
6.4272782765362768
 31
0.0
  0
LINE
  5
3F361
  8
OBJ
  6
CONTINUOUS
 10
42.699210679796757
 20
6.5086637206463784
 30
0.0
 11
42.559339312956261
 21
6.5086637206463784
 31
0.0
  0
LINE
  5
3F362
  8
OBJ
  6
CONTINUOUS
 62
     7
 10
42.718814362451717
 20
6.1373045018295791
 30
0.0
 11
42.718814362451717
 21
6.4153297967970042
 31
0.0
  0
LINE
  5
3F363
  8
OBJ
  6
CONTINUOUS
 62
     7
 10
42.535414976110737
 20
6.1389124693296289
 30
0.0
 11
42.535414976110737
 21
6.4169377642970531
 31
0.0
  0
LINE
  5
3F364
  8
OBJ
  6
CONTINUOUS
 62
     7
 10
43.251641566501043
 20
5.6901664485350061
 30
0.0
 11
43.022799550616163
 21
5.6901664485350061
 31
0.0
  0
ARC
  5
3F367
  8
OBJ
  6
CONTINUOUS
 62
     7
 10
43.285034822037879
 20
5.7649612969093971
 30
0.0
 40
0.0333932555368488
 50
0.0
 51
180.0
  0
LINE
  5
3F368
  8
OBJ
  6
CONTINUOUS
 62
     7
 10
43.251641566501043
 20
5.7649612969094024
 30
0.0
 11
43.251641566501043
 21
5.6901664485350061
 31
0.0
  0
LINE
  5
3F369
  8
OBJ
  6
CONTINUOUS
 62
     7
 10
43.31842807757473
 20
5.7649612969094024
 30
0.0
 11
43.31842807757473
 21
5.6901664485350061
 31
0.0
  0
TEXT
  5
3F36A
  8
OBJ
  6
CONTINUOUS
 10
43.129145373319297
 20
6.4463700009549409
 30
0.0
 40
0.04
  1
Vref.
  7
SIMPLEX
  0
CIRCLE
  5
3F36B
  8
OBJ
  6
CONTINUOUS
 10
43.191856413752006
 20
6.2763171493132948
 30
0.0
 40
0.0402769183160991
  0
LINE
  5
3F36C
  8
OBJ
  6
CONTINUOUS
 10
43.264454380518153
 20
6.5086637206463784
 30
0.0
 11
43.116333087205192
 21
6.5086637206463784
 31
0.0
  0
LINE
  5
3F36D
  8
OBJ
  6
CONTINUOUS
 10
43.116333087205192
 20
6.4272782765362768
 30
0.0
 11
43.264454380518139
 21
6.4272782765362768
 31
0.0
  0
LINE
  5
3F36E
  8
OBJ
  6
CONTINUOUS
 10
43.101223016826552
 20
6.4935536502677182
 30
0.0
 11
43.101223016826552
 21
6.4423883469149468
 31
0.0
  0
ARC
  5
3F36F
  8
OBJ
  6
CONTINUOUS
 10
43.116333087205192
 20
6.4935536502677182
 30
0.0
 40
0.0151100703786646
 50
90.0
 51
180.0
  0
ARC
  5
3F370
  8
OBJ
  6
CONTINUOUS
 10
43.116333087205192
 20
6.4423883469149468
 30
0.0
 40
0.0151100703786646
 50
179.9999999999971
 51
270.0
  0
ARC
  5
3F371
  8
OBJ
  6
CONTINUOUS
 10
43.075520217765828
 20
6.4935536502677182
 30
0.0
 40
0.0151100703786646
 50
0.0
 51
90.0
  0
LINE
  5
3F372
  8
OBJ
  6
CONTINUOUS
 10
43.090630288144489
 20
6.4423883469149468
 30
0.0
 11
43.090630288144489
 21
6.4935536502677182
 31
0.0
  0
ARC
  5
3F373
  8
OBJ
  6
CONTINUOUS
 10
43.075520217765821
 20
6.4423883469149468
 30
0.0
 40
0.0151100703786646
 50
270.0
 51
359.9999999999971
  0
ARC
  5
3F374
  8
OBJ
  6
CONTINUOUS
 10
42.894375331894942
 20
6.4935536502677182
 30
0.0
 40
0.0151100703786646
 50
0.0
 51
90.0
  0
LINE
  5
3F375
  8
OBJ
  6
CONTINUOUS
 10
42.909485402273603
 20
6.4423883469149468
 30
0.0
 11
42.909485402273603
 21
6.4935536502677182
 31
0.0
  0
ARC
  5
3F376
  8
OBJ
  6
CONTINUOUS
 10
42.894375331894921
 20
6.4423883469149468
 30
0.0
 40
0.0151100703786646
 50
270.0
 51
359.9999999999971
  0
LINE
  5
3F377
  8
OBJ
  6
CONTINUOUS
 10
42.916395875506637
 20
6.4935536502677182
 30
0.0
 11
42.916395875506637
 21
6.4423883469149468
 31
0.0
  0
ARC
  5
3F378
  8
OBJ
  6
CONTINUOUS
 10
42.931505945885277
 20
6.4935536502677182
 30
0.0
 40
0.0151100703786646
 50
90.0
 51
180.0
  0
ARC
  5
3F379
  8
OBJ
  6
CONTINUOUS
 10
42.931505945885277
 20
6.4423883469149468
 30
0.0
 40
0.0151100703786646
 50
179.9999999999971
 51
270.0
  0
LINE
  5
3F37A
  8
OBJ
  6
CONTINUOUS
 10
43.075520217765828
 20
6.5086637206463784
 30
0.0
 11
42.931505945885277
 21
6.5086637206463784
 31
0.0
  0
LINE
  5
3F37B
  8
OBJ
  6
CONTINUOUS
 10
42.931505945885277
 20
6.4272782765362768
 30
0.0
 11
43.075520217765821
 21
6.4272782765362768
 31
0.0
  0
TEXT
  5
3F37C
  8
OBJ
  6
CONTINUOUS
 10
42.93164380693041
 20
6.449381309144111
 30
0.0
 40
0.04
  1
Vaux.
  7
SIMPLEX
  0
CIRCLE
  5
3F37E
  8
OBJ
  6
CONTINUOUS
 10
43.004847851440381
 20
6.2763171493132948
 30
0.0
 40
0.0402769183160991
  0
LINE
  5
3F37F
  8
OBJ
  6
CONTINUOUS
 62
     7
 10
43.092651526031389
 20
6.1373045018295791
 30
0.0
 11
43.092651526031389
 21
6.4153297967970042
 31
0.0
  0
LINE
  5
3F380
  8
OBJ
  6
CONTINUOUS
 62
     7
 10
42.899127984788578
 20
6.1373045018295791
 30
0.0
 11
42.899127984788578
 21
6.4153297967970042
 31
0.0
  0
LINE
  5
3F381
  8
OBJ
  6
CONTINUOUS
 10
43.465839069003088
 20
6.4935536502677182
 30
0.0
 11
43.465839069003088
 21
6.4423883469149468
 31
0.0
  0
ARC
  5
3F382
  8
OBJ
  6
CONTINUOUS
 10
43.480949139381742
 20
6.4935536502677182
 30
0.0
 40
0.0151100703786646
 50
90.0
 51
180.0
  0
ARC
  5
3F383
  8
OBJ
  6
CONTINUOUS
 10
43.480949139381742
 20
6.4423883469149468
 30
0.0
 40
0.0151100703786646
 50
179.9999999999971
 51
270.0
  0
ARC
  5
3F384
  8
OBJ
  6
CONTINUOUS
 10
43.443546208177352
 20
6.4423883469149468
 30
0.0
 40
0.0151100703786646
 50
270.0
 51
359.9999999999971
  0
ARC
  5
3F385
  8
OBJ
  6
CONTINUOUS
 10
43.443546208177352
 20
6.4935536502677182
 30
0.0
 40
0.0151100703786646
 50
0.0
 51
90.0
  0
LINE
  5
3F386
  8
OBJ
  6
CONTINUOUS
 10
43.45865627855602
 20
6.4423883469149468
 30
0.0
 11
43.45865627855602
 21
6.4935536502677182
 31
0.0
  0
ARC
  5
3F387
  8
OBJ
  6
CONTINUOUS
 10
43.303674841336857
 20
6.4935536502677182
 30
0.0
 40
0.0151100703786646
 50
90.0
 51
180.0
  0
LINE
  5
3F388
  8
OBJ
  6
CONTINUOUS
 10
43.28856477095821
 20
6.4935536502677182
 30
0.0
 11
43.28856477095821
 21
6.4423883469149468
 31
0.0
  0
ARC
  5
3F389
  8
OBJ
  6
CONTINUOUS
 10
43.303674841336857
 20
6.4423883469149468
 30
0.0
 40
0.0151100703786646
 50
179.9999999999971
 51
270.0
  0
ARC
  5
3F38A
  8
OBJ
  6
CONTINUOUS
 10
43.264454380518139
 20
6.4423883469149468
 30
0.0
 40
0.0151100703786646
 50
270.0
 51
359.9999999999971
  0
LINE
  5
3F38B
  8
OBJ
  6
CONTINUOUS
 10
43.279564450896807
 20
6.4423883469149468
 30
0.0
 11
43.279564450896807
 21
6.4935536502677182
 31
0.0
  0
ARC
  5
3F38C
  8
OBJ
  6
CONTINUOUS
 10
43.264454380518153
 20
6.4935536502677182
 30
0.0
 40
0.0151100703786646
 50
0.0
 51
90.0
  0
TEXT
  5
3F38D
  8
OBJ
  6
CONTINUOUS
 10
43.325800340657061
 20
6.4388883981425948
 30
0.0
 40
0.06
  1
Va
  7
SIMPLEX
  0
LINE
  5
3F38E
  8
OBJ
  6
CONTINUOUS
 10
43.443546208177352
 20
6.5086637206463784
 30
0.0
 11
43.303674841336857
 21
6.5086637206463784
 31
0.0
  0
LINE
  5
3F38F
  8
OBJ
  6
CONTINUOUS
 10
43.303674841336857
 20
6.4272782765362768
 30
0.0
 11
43.443546208177352
 21
6.4272782765362768
 31
0.0
  0
CIRCLE
  5
3F392
  8
OBJ
  6
CONTINUOUS
 10
43.369092462416383
 20
6.2763171493132948
 30
0.0
 40
0.0402769183160991
  0
LINE
  5
3F393
  8
OBJ
  6
CONTINUOUS
 62
     7
 10
43.463411070688139
 20
6.1373045018295791
 30
0.0
 11
43.463411070688139
 21
6.4153297967970042
 31
0.0
  0
LINE
  5
3F394
  8
OBJ
  6
CONTINUOUS
 62
     7
 10
43.279660088343043
 20
6.1373045018295791
 30
0.0
 11
43.279660088343043
 21
6.4153297967970042
 31
0.0
  0
CIRCLE
  5
3F397
  8
OBJ
  6
CONTINUOUS
 39
0.5282410363257157
 10
44.986362108307183
 20
3.5028704293305131
 30
0.0
 40
0.0093714308432137
  0
CIRCLE
  5
3F398
  8
OBJ
  6
CONTINUOUS
 39
0.5282410363257157
 10
45.375196024167678
 20
3.6411785860458821
 30
0.0
 40
0.0093714308432137
  0
LINE
  5
3F399
  8
OBJ
  6
CONTINUOUS
 39
0.5282410363257157
 10
44.789263454421672
 20
4.7074256191396762
 30
0.0
 11
45.127528444201729
 21
4.7074256191396753
 31
0.0
  0
LINE
  5
3F39A
  8
OBJ
  6
CONTINUOUS
 39
0.5282410363257157
 10
45.148612900563997
 20
4.6863411627774081
 30
0.0
 11
45.127528444201729
 21
4.7074256191396762
 31
0.0
  0
LINE
  5
3F3A5
  8
OBJ
  6
CONTINUOUS
 10
45.338263118631332
 20
6.2701451188762194
 30
0.0
 11
45.338263118631332
 21
4.6646261499979822
 31
0.0
  0
LINE
  5
3F3B0
  8
OBJ
  6
CONTINUOUS
 10
43.920465724656779
 20
4.5383783887053797
 30
0.0
 11
45.415352799081909
 21
4.5383783887053823
 31
0.0
  0
LINE
  5
3F3C5
  8
OBJ
  6
CONTINUOUS
 10
45.338263118631332
 20
3.744931295792695
 30
0.0
 11
45.338263118631332
 21
3.6147628696050451
 31
0.0
  0
LINE
  5
3F3C6
  8
OBJ
  6
CONTINUOUS
 10
45.415352799081909
 20
4.5383783887053823
 30
0.0
 11
45.415352799081887
 21
4.7472519441699772
 31
0.0
  0
LINE
  5
3F3C7
  8
OBJ
  6
CONTINUOUS
 10
45.148480634675309
 20
3.744931295792695
 30
0.0
 11
45.148480634675309
 21
3.6147628696050451
 31
0.0
  0
TEXT
  5
3F3CC
  8
OBJ
  6
CONTINUOUS
 10
45.704456306376812
 20
3.6529780195824468
 30
0.0
 40
0.0661329443497673
  1
LINE
  0
LINE
  5
3F3D1
  8
OBJ
  6
CONTINUOUS
 10
44.995939330121459
 20
6.3841431436049083
 30
0.0
 11
44.958395949311708
 21
6.405818824621706
 31
0.0
  0
LINE
  5
3F3D2
  8
OBJ
  6
CONTINUOUS
 10
45.006696506224429
 20
6.5340194969653664
 30
0.0
 11
44.913005550447608
 21
6.5340194969653664
 31
0.0
  0
LINE
  5
3F3D3
  8
OBJ
  6
CONTINUOUS
 10
44.913005550447608
 20
6.4493924800028557
 30
0.0
 11
45.006696506224429
 21
6.4493924800028557
 31
0.0
  0
LINE
  5
3F3D4
  8
OBJ
  6
CONTINUOUS
 10
44.958395949311708
 20
6.3191161005545098
 30
0.0
 11
44.995939330121459
 21
6.3407917815713093
 31
0.0
  0
CIRCLE
  5
3F3D5
  8
OBJ
  6
CONTINUOUS
 10
44.958395949311708
 20
6.3624674625881088
 30
0.0
 40
0.028168665929907
  0
CIRCLE
  5
3F3D6
  8
OBJ
  6
CONTINUOUS
 62
     7
 10
44.958395949311708
 20
6.3624674625881088
 30
0.0
 40
0.0779075228723947
  0
LINE
  5
3F3D7
  8
OBJ
  6
CONTINUOUS
 62
     7
 10
44.984917739637659
 20
5.7649612969094024
 30
0.0
 11
44.75607572375278
 21
5.6901664485350061
 31
0.0
  0
ARC
  5
3F3E3
  8
OBJ
  6
CONTINUOUS
 10
44.247566570400323
 20
6.5219314406624358
 30
0.0
 40
0.0120880563029317
 50
0.0
 51
90.0
  0
ARC
  5
3F3E4
  8
OBJ
  6
CONTINUOUS
 10
44.247566570400323
 20
6.4614805363057872
 30
0.0
 40
0.0120880563029317
 50
270.0
 51
0.0
  0
CIRCLE
  5
3F3E5
  8
OBJ
  6
CONTINUOUS
 62
     7
 10
44.19956821489518
 20
6.3624674625881088
 30
0.0
 40
0.0779075228723947
  0
CIRCLE
  5
3F3E6
  8
OBJ
  6
CONTINUOUS
 62
     7
 10
44.009785730939143
 20
6.1626849786320701
 30
0.0
 40
0.0779075228723947
  0
LINE
  5
3F3E7
  8
OBJ
  6
CONTINUOUS
 10
43.813945715029341
 20
6.4423883469149468
 30
0.0
 11
43.813945715029341
 21
6.4935536502677182
 31
0.0
  0
ARC
  5
3F3E8
  8
OBJ
  6
CONTINUOUS
 10
43.79883564465068
 20
6.4935536502677182
 30
0.0
 40
0.0151100703786646
 50
0.0
 51
90.0
  0
ARC
  5
3F3E9
  8
OBJ
  6
CONTINUOUS
 10
43.798835644650673
 20
6.4423883469149468
 30
0.0
 40
0.0151100703786646
 50
270.0
 51
359.9999999999971
  0
ARC
  5
3F3EA
  8
OBJ
  6
CONTINUOUS
 10
43.620820506222223
 20
6.4423883469149468
 30
0.0
 40
0.0151100703786646
 50
270.0
 51
359.9999999999971
  0
ARC
  5
3F3EB
  8
OBJ
  6
CONTINUOUS
 10
43.620820506222231
 20
6.4935536502677182
 30
0.0
 40
0.0151100703786646
 50
0.0
 51
90.0
  0
LINE
  5
3F3EC
  8
OBJ
  6
CONTINUOUS
 10
43.635930576600892
 20
6.4423883469149468
 30
0.0
 11
43.635930576600892
 21
6.4935536502677182
 31
0.0
  0
ARC
  5
3F3ED
  8
OBJ
  6
CONTINUOUS
 10
43.658964277810192
 20
6.4423883469149468
 30
0.0
 40
0.0151100703786646
 50
179.9999999999971
 51
270.0
  0
ARC
  5
3F3EE
  8
OBJ
  6
CONTINUOUS
 10
43.658964277810192
 20
6.4935536502677182
 30
0.0
 40
0.0151100703786646
 50
90.0
 51
180.0
  0
LINE
  5
3F3EF
  8
OBJ
  6
CONTINUOUS
 10
43.643854207431538
 20
6.4935536502677182
 30
0.0
 11
43.643854207431538
 21
6.4423883469149468
 31
0.0
  0
TEXT
  5
3F3F0
  8
OBJ
  6
CONTINUOUS
 10
43.681089777130389
 20
6.4388883981425948
 30
0.0
 40
0.06
  1
Vc
  7
SIMPLEX
  0
LINE
  5
3F3F1
  8
OBJ
  6
CONTINUOUS
 10
43.658964277810192
 20
6.4272782765362768
 30
0.0
 11
43.798835644650673
 21
6.4272782765362768
 31
0.0
  0
LINE
  5
3F3F2
  8
OBJ
  6
CONTINUOUS
 10
43.79883564465068
 20
6.5086637206463784
 30
0.0
 11
43.658964277810192
 21
6.5086637206463784
 31
0.0
  0
LINE
  5
3F3F3
  8
OBJ
  6
CONTINUOUS
 10
43.693034384190007
 20
6.2584056347302051
 30
0.0
 11
43.7651844443253
 21
6.2942286638963942
 31
0.0
  0
CIRCLE
  5
3F3F4
  8
OBJ
  6
CONTINUOUS
 10
43.729109414257657
 20
6.2763171493132948
 30
0.0
 40
0.0402769183160991
  0
LINE
  5
3F3F6
  8
OBJ
  6
CONTINUOUS
 62
     7
 10
43.816913088848693
 20
6.1373045018295791
 30
0.0
 11
43.816913088848693
 21
6.4153297967970042
 31
0.0
  0
LINE
  5
3F3F7
  8
OBJ
  6
CONTINUOUS
 62
     7
 10
43.640647209853441
 20
6.1373045018295791
 30
0.0
 11
43.640647209853441
 21
6.4153297967970042
 31
0.0
  0
LINE
  5
3F3F8
  8
OBJ
  6
CONTINUOUS
 10
44.141787558320573
 20
6.5219314406624358
 30
0.0
 11
44.141787558320573
 21
6.4614805363057943
 31
0.0
  0
ARC
  5
3F3F9
  8
OBJ
  6
CONTINUOUS
 10
44.153875614623523
 20
6.5219314406624358
 30
0.0
 40
0.0120880563029317
 50
90.0
 51
180.0
  0
ARC
  5
3F3FA
  8
OBJ
  6
CONTINUOUS
 10
44.153875614623523
 20
6.4614805363057943
 30
0.0
 40
0.0120880563029317
 50
180.0
 51
269.99999999999972
  0
LINE
  5
3F3FB
  8
OBJ
  6
CONTINUOUS
 10
44.199568214895159
 20
6.405818824621706
 30
0.0
 11
44.162024834085408
 21
6.3841431436049083
 31
0.0
  0
TEXT
  5
3F3FC
  8
OBJ
  6
CONTINUOUS
 10
44.164005567920221
 20
6.4694372417646608
 30
0.0
 40
0.05
  1
HI
  7
SIMPLEX
  0
LINE
  5
3F3FD
  8
OBJ
  6
CONTINUOUS
 10
44.247566570400323
 20
6.5340194969653664
 30
0.0
 11
44.153875614623523
 21
6.5340194969653664
 31
0.0
  0
LINE
  5
3F3FE
  8
OBJ
  6
CONTINUOUS
 10
44.153875614623523
 20
6.4493924800028557
 30
0.0
 11
44.247566570400323
 21
6.4493924800028557
 31
0.0
  0
LINE
  5
3F3FF
  8
OBJ
  6
CONTINUOUS
 10
44.23711159570491
 20
6.3841431436049083
 30
0.0
 11
44.199568214895159
 21
6.405818824621706
 31
0.0
  0
LINE
  5
3F400
  8
OBJ
  6
CONTINUOUS
 10
44.162024834085408
 20
6.3407917815713093
 30
0.0
 11
44.199568214895159
 21
6.3191161005545098
 31
0.0
  0
LINE
  5
3F401
  8
OBJ
  6
CONTINUOUS
 10
44.199568214895159
 20
6.3191161005545098
 30
0.0
 11
44.23711159570491
 21
6.3407917815713093
 31
0.0
  0
LINE
  5
3F402
  8
OBJ
  6
CONTINUOUS
 10
44.23711159570491
 20
6.3407917815713093
 30
0.0
 11
44.23711159570491
 21
6.3841431436049083
 31
0.0
  0
LINE
  5
3F403
  8
OBJ
  6
CONTINUOUS
 10
44.162024834085408
 20
6.3841431436049083
 30
0.0
 11
44.162024834085408
 21
6.3407917815713093
 31
0.0
  0
CIRCLE
  5
3F404
  8
OBJ
  6
CONTINUOUS
 10
44.19956821489518
 20
6.3624674625881088
 30
0.0
 40
0.028168665929907
  0
LINE
  5
3F405
  8
OBJ
  6
CONTINUOUS
 10
44.077857241143562
 20
6.4468099478071119
 30
0.0
 11
44.077857241143562
 21
6.5502189371511124
 31
0.0
  0
ARC
  5
3F406
  8
OBJ
  6
CONTINUOUS
 10
44.065769184840612
 20
6.5502189371511124
 30
0.0
 40
0.0120880563029317
 50
0.0
 51
90.0
  0
TEXT
  5
3F407
  8
OBJ
  6
CONTINUOUS
 10
43.978738007503239
 20
6.4716544876706363
 30
0.0
 40
0.0568138646237789
  1
Ia
  7
SIMPLEX
  0
ARC
  5
3F408
  8
OBJ
  6
CONTINUOUS
 10
44.065769184840612
 20
6.4468099478071119
 30
0.0
 40
0.0120880563029317
 50
270.0
 51
0.0
  0
LINE
  5
3F409
  8
OBJ
  6
CONTINUOUS
 10
43.941714220734731
 20
6.5502189371511124
 30
0.0
 11
43.941714220734731
 21
6.4468099478071119
 31
0.0
  0
ARC
  5
3F40A
  8
OBJ
  6
CONTINUOUS
 10
43.953802277037667
 20
6.5502189371511053
 30
0.0
 40
0.0120880563029317
 50
90.0
 51
180.0
  0
ARC
  5
3F40B
  8
OBJ
  6
CONTINUOUS
 10
43.953802277037667
 20
6.4468099478071119
 30
0.0
 40
0.0120880563029317
 50
180.0
 51
270.0
  0
LINE
  5
3F40C
  8
OBJ
  6
CONTINUOUS
 10
44.065769184840612
 20
6.562306993454043
 30
0.0
 11
43.953802277037667
 21
6.562306993454043
 31
0.0
  0
LINE
  5
3F40D
  8
OBJ
  6
CONTINUOUS
 10
43.953802277037667
 20
6.4347218915041786
 30
0.0
 11
44.065769184840612
 21
6.4347218915041786
 31
0.0
  0
LINE
  5
3F40E
  8
OBJ
  6
CONTINUOUS
 10
44.047329111748901
 20
6.1843606596488714
 30
0.0
 11
44.009785730939129
 21
6.2060363406656718
 31
0.0
  0
LINE
  5
3F40F
  8
OBJ
  6
CONTINUOUS
 10
44.009785730939129
 20
6.2060363406656718
 30
0.0
 11
43.972242350129392
 21
6.1843606596488714
 31
0.0
  0
LINE
  5
3F410
  8
OBJ
  6
CONTINUOUS
 10
44.069872142747229
 20
6.2716980523497483
 30
0.0
 11
44.069872142747229
 21
6.3321489567063969
 31
0.0
  0
ARC
  5
3F411
  8
OBJ
  6
CONTINUOUS
 10
44.0577840864443
 20
6.2716980523497483
 30
0.0
 40
0.0120880563029317
 50
270.0
 51
0.0
  0
LINE
  5
3F412
  8
OBJ
  6
CONTINUOUS
 10
43.964093130667472
 20
6.2596099960468168
 30
0.0
 11
44.0577840864443
 21
6.2596099960468168
 31
0.0
  0
LINE
  5
3F413
  8
OBJ
  6
CONTINUOUS
 10
44.0577840864443
 20
6.3442370130093266
 30
0.0
 11
43.964093130667472
 21
6.3442370130093266
 31
0.0
  0
ARC
  5
3F414
  8
OBJ
  6
CONTINUOUS
 10
44.0577840864443
 20
6.3321489567063969
 30
0.0
 40
0.0120880563029317
 50
0.0
 51
90.0
  0
TEXT
  5
3F415
  8
OBJ
  6
CONTINUOUS
 10
43.974223083964212
 20
6.2796547578086219
 30
0.0
 40
0.05
  1
LO
  7
SIMPLEX
  0
LINE
  5
3F416
  8
OBJ
  6
CONTINUOUS
 10
43.95200507436455
 20
6.3321489567063969
 30
0.0
 11
43.95200507436455
 21
6.2716980523497554
 31
0.0
  0
ARC
  5
3F417
  8
OBJ
  6
CONTINUOUS
 10
43.964093130667472
 20
6.2716980523497554
 30
0.0
 40
0.0120880563029317
 50
180.0
 51
269.99999999999972
  0
ARC
  5
3F418
  8
OBJ
  6
CONTINUOUS
 10
43.964093130667472
 20
6.3321489567063969
 30
0.0
 40
0.0120880563029317
 50
90.0
 51
180.0
  0
LINE
  5
3F419
  8
OBJ
  6
CONTINUOUS
 10
44.009785730939143
 20
6.3453402793695979
 30
0.0
 11
44.009785730939143
 21
6.4347218915041786
 31
0.0
  0
LINE
  5
3F41A
  8
OBJ
  6
CONTINUOUS
 10
44.009785730939129
 20
6.1193336165984791
 30
0.0
 11
44.047329111748901
 21
6.141009297615275
 31
0.0
  0
LINE
  5
3F41B
  8
OBJ
  6
CONTINUOUS
 10
43.972242350129392
 20
6.141009297615275
 30
0.0
 11
44.009785730939129
 21
6.1193336165984791
 31
0.0
  0
CIRCLE
  5
3F41C
  8
OBJ
  6
CONTINUOUS
 10
44.009785730939143
 20
6.1626849786320701
 30
0.0
 40
0.028168665929907
  0
LINE
  5
3F41D
  8
OBJ
  6
CONTINUOUS
 10
43.972242350129392
 20
6.1843606596488714
 30
0.0
 11
43.972242350129392
 21
6.141009297615275
 31
0.0
  0
LINE
  5
3F41E
  8
OBJ
  6
CONTINUOUS
 10
44.047329111748901
 20
6.141009297615275
 30
0.0
 11
44.047329111748901
 21
6.1843606596488714
 31
0.0
  0
CIRCLE
  5
3F41F
  8
OBJ
  6
CONTINUOUS
 62
     7
 10
44.768915666763242
 20
6.1626849786320701
 30
0.0
 40
0.0779075228723947
  0
CIRCLE
  5
3F420
  8
OBJ
  6
CONTINUOUS
 62
     7
 10
44.389350698851182
 20
6.1626849786320701
 30
0.0
 40
0.0779075228723947
  0
LINE
  5
3F421
  8
OBJ
  6
CONTINUOUS
 62
     7
 10
44.756075723752772
 20
5.6901664485350114
 30
0.0
 11
44.5272337078679
 21
5.6901664485350114
 31
0.0
  0
ARC
  5
3F422
  8
OBJ
  6
CONTINUOUS
 62
     7
 10
44.49384045233105
 20
5.7649612969093971
 30
0.0
 40
0.0333932555368488
 50
0.0
 51
180.0
  0
LINE
  5
3F423
  8
OBJ
  6
CONTINUOUS
 62
     7
 10
44.460447196794213
 20
5.7649612969094024
 30
0.0
 11
44.460447196794213
 21
5.6901664485350061
 31
0.0
  0
LINE
  5
3F424
  8
OBJ
  6
CONTINUOUS
 62
     7
 10
44.5272337078679
 20
5.7649612969094024
 30
0.0
 11
44.5272337078679
 21
5.6901664485350114
 31
0.0
  0
LINE
  5
3F425
  8
OBJ
  6
CONTINUOUS
 10
44.533440582535547
 20
6.4493924800028557
 30
0.0
 11
44.627131538312369
 21
6.4493924800028557
 31
0.0
  0
LINE
  5
3F426
  8
OBJ
  6
CONTINUOUS
 10
44.627131538312369
 20
6.5340194969653664
 30
0.0
 11
44.533440582535547
 21
6.5340194969653664
 31
0.0
  0
CIRCLE
  5
3F427
  8
OBJ
  6
CONTINUOUS
 62
     7
 10
44.579133182807233
 20
6.3624674625881088
 30
0.0
 40
0.0779075228723947
  0
LINE
  5
3F428
  8
OBJ
  6
CONTINUOUS
 10
44.61667656361697
 20
6.3841431436049083
 30
0.0
 11
44.579133182807233
 21
6.405818824621706
 31
0.0
  0
LINE
  5
3F429
  8
OBJ
  6
CONTINUOUS
 10
44.579133182807233
 20
6.3191161005545098
 30
0.0
 11
44.61667656361697
 21
6.3407917815713093
 31
0.0
  0
LINE
  5
3F42A
  8
OBJ
  6
CONTINUOUS
 10
44.61667656361697
 20
6.3407917815713093
 30
0.0
 11
44.61667656361697
 21
6.3841431436049083
 31
0.0
  0
ARC
  5
3F42B
  8
OBJ
  6
CONTINUOUS
 10
44.533440582535547
 20
6.4614805363057943
 30
0.0
 40
0.0120880563029317
 50
180.0
 51
269.99999999999972
  0
ARC
  5
3F42C
  8
OBJ
  6
CONTINUOUS
 10
44.533440582535547
 20
6.5219314406624358
 30
0.0
 40
0.0120880563029317
 50
90.0
 51
180.0
  0
LINE
  5
3F42D
  8
OBJ
  6
CONTINUOUS
 10
44.521352526232619
 20
6.5219314406624358
 30
0.0
 11
44.521352526232619
 21
6.4614805363057943
 31
0.0
  0
ARC
  5
3F42E
  8
OBJ
  6
CONTINUOUS
 10
44.44533415275265
 20
6.4468099478071119
 30
0.0
 40
0.0120880563029317
 50
270.0
 51
0.0
  0
ARC
  5
3F42F
  8
OBJ
  6
CONTINUOUS
 10
44.44533415275265
 20
6.5502189371511124
 30
0.0
 40
0.0120880563029317
 50
0.0
 51
90.0
  0
LINE
  5
3F430
  8
OBJ
  6
CONTINUOUS
 10
44.457422209055601
 20
6.4468099478071119
 30
0.0
 11
44.457422209055601
 21
6.5502189371511124
 31
0.0
  0
TEXT
  5
3F431
  8
OBJ
  6
CONTINUOUS
 10
44.35830297541527
 20
6.4716544876706363
 30
0.0
 40
0.0568138646237789
  1
Ib
  7
SIMPLEX
  0
LINE
  5
3F432
  8
OBJ
  6
CONTINUOUS
 10
44.333367244949713
 20
6.4347218915041786
 30
0.0
 11
44.44533415275265
 21
6.4347218915041786
 31
0.0
  0
LINE
  5
3F433
  8
OBJ
  6
CONTINUOUS
 10
44.44533415275265
 20
6.562306993454043
 30
0.0
 11
44.333367244949713
 21
6.562306993454043
 31
0.0
  0
LINE
  5
3F434
  8
OBJ
  6
CONTINUOUS
 10
44.32127918864677
 20
6.5502189371511124
 30
0.0
 11
44.32127918864677
 21
6.4468099478071119
 31
0.0
  0
LINE
  5
3F435
  8
OBJ
  6
CONTINUOUS
 10
44.259654626703252
 20
6.4614805363057872
 30
0.0
 11
44.259654626703252
 21
6.5219314406624358
 31
0.0
  0
ARC
  5
3F436
  8
OBJ
  6
CONTINUOUS
 10
44.333367244949713
 20
6.4468099478071119
 30
0.0
 40
0.0120880563029317
 50
180.0
 51
270.0
  0
ARC
  5
3F437
  8
OBJ
  6
CONTINUOUS
 10
44.333367244949713
 20
6.5502189371511053
 30
0.0
 40
0.0120880563029317
 50
90.0
 51
180.0
  0
LINE
  5
3F438
  8
OBJ
  6
CONTINUOUS
 10
44.449437110659268
 20
6.2716980523497483
 30
0.0
 11
44.449437110659268
 21
6.3321489567063969
 31
0.0
  0
LINE
  5
3F439
  8
OBJ
  6
CONTINUOUS
 10
44.389350698851203
 20
6.2060363406656718
 30
0.0
 11
44.351807318041438
 21
6.1843606596488714
 31
0.0
  0
LINE
  5
3F43A
  8
OBJ
  6
CONTINUOUS
 10
44.426894079660947
 20
6.1843606596488714
 30
0.0
 11
44.389350698851203
 21
6.2060363406656718
 31
0.0
  0
LINE
  5
3F43B
  8
OBJ
  6
CONTINUOUS
 10
44.343658098579517
 20
6.2596099960468168
 30
0.0
 11
44.437349054356339
 21
6.2596099960468168
 31
0.0
  0
TEXT
  5
3F43C
  8
OBJ
  6
CONTINUOUS
 10
44.353788051876244
 20
6.2796547578086219
 30
0.0
 40
0.05
  1
LO
  7
SIMPLEX
  0
LINE
  5
3F43D
  8
OBJ
  6
CONTINUOUS
 10
44.437349054356339
 20
6.3442370130093266
 30
0.0
 11
44.343658098579517
 21
6.3442370130093266
 31
0.0
  0
LINE
  5
3F43E
  8
OBJ
  6
CONTINUOUS
 10
44.331570042276581
 20
6.3321489567063969
 30
0.0
 11
44.331570042276581
 21
6.2716980523497554
 31
0.0
  0
ARC
  5
3F43F
  8
OBJ
  6
CONTINUOUS
 10
44.343658098579517
 20
6.3321489567063969
 30
0.0
 40
0.0120880563029317
 50
90.0
 51
180.0
  0
ARC
  5
3F440
  8
OBJ
  6
CONTINUOUS
 10
44.343658098579517
 20
6.2716980523497554
 30
0.0
 40
0.0120880563029317
 50
180.0
 51
269.99999999999972
  0
ARC
  5
3F441
  8
OBJ
  6
CONTINUOUS
 10
44.437349054356339
 20
6.3321489567063969
 30
0.0
 40
0.0120880563029317
 50
0.0
 51
90.0
  0
ARC
  5
3F442
  8
OBJ
  6
CONTINUOUS
 10
44.437349054356339
 20
6.2716980523497483
 30
0.0
 40
0.0120880563029317
 50
270.0
 51
0.0
  0
LINE
  5
3F443
  8
OBJ
  6
CONTINUOUS
 10
44.389350698851182
 20
6.3453402793695979
 30
0.0
 11
44.389350698851182
 21
6.4347218915041786
 31
0.0
  0
LINE
  5
3F444
  8
OBJ
  6
CONTINUOUS
 10
44.541589801997468
 20
6.3841431436049083
 30
0.0
 11
44.541589801997468
 21
6.3407917815713093
 31
0.0
  0
TEXT
  5
3F445
  8
OBJ
  6
CONTINUOUS
 10
44.543570535832274
 20
6.4694372417646608
 30
0.0
 40
0.05
  1
HI
  7
SIMPLEX
  0
LINE
  5
3F446
  8
OBJ
  6
CONTINUOUS
 10
44.579133182807233
 20
6.405818824621706
 30
0.0
 11
44.541589801997468
 21
6.3841431436049083
 31
0.0
  0
LINE
  5
3F447
  8
OBJ
  6
CONTINUOUS
 10
44.541589801997468
 20
6.3407917815713093
 30
0.0
 11
44.579133182807233
 21
6.3191161005545098
 31
0.0
  0
CIRCLE
  5
3F448
  8
OBJ
  6
CONTINUOUS
 10
44.579133182807233
 20
6.3624674625881088
 30
0.0
 40
0.028168665929907
  0
LINE
  5
3F449
  8
OBJ
  6
CONTINUOUS
 10
44.351807318041438
 20
6.141009297615275
 30
0.0
 11
44.389350698851203
 21
6.1193336165984791
 31
0.0
  0
LINE
  5
3F44A
  8
OBJ
  6
CONTINUOUS
 10
44.389350698851203
 20
6.1193336165984791
 30
0.0
 11
44.426894079660947
 21
6.141009297615275
 31
0.0
  0
CIRCLE
  5
3F44B
  8
OBJ
  6
CONTINUOUS
 10
44.389350698851182
 20
6.1626849786320701
 30
0.0
 40
0.028168665929907
  0
LINE
  5
3F44C
  8
OBJ
  6
CONTINUOUS
 10
44.351807318041438
 20
6.1843606596488714
 30
0.0
 11
44.351807318041438
 21
6.141009297615275
 31
0.0
  0
LINE
  5
3F44D
  8
OBJ
  6
CONTINUOUS
 10
44.426894079660947
 20
6.141009297615275
 30
0.0
 11
44.426894079660947
 21
6.1843606596488714
 31
0.0
  0
TEXT
  5
3F44E
  8
OBJ
  6
CONTINUOUS
 10
44.923135503744327
 20
6.4694372417646608
 30
0.0
 40
0.05
  1
HI
  7
SIMPLEX
  0
LINE
  5
3F44F
  8
OBJ
  6
CONTINUOUS
 10
44.900917494144672
 20
6.5219314406624358
 30
0.0
 11
44.900917494144672
 21
6.4614805363057943
 31
0.0
  0
ARC
  5
3F450
  8
OBJ
  6
CONTINUOUS
 10
44.913005550447608
 20
6.5219314406624358
 30
0.0
 40
0.0120880563029317
 50
90.0
 51
180.0
  0
ARC
  5
3F451
  8
OBJ
  6
CONTINUOUS
 10
44.913005550447608
 20
6.4614805363057943
 30
0.0
 40
0.0120880563029317
 50
180.0
 51
269.99999999999972
  0
LINE
  5
3F452
  8
OBJ
  6
CONTINUOUS
 10
44.836987176967668
 20
6.4468099478071119
 30
0.0
 11
44.836987176967668
 21
6.5502189371511124
 31
0.0
  0
ARC
  5
3F453
  8
OBJ
  6
CONTINUOUS
 10
44.824899120664718
 20
6.5502189371511124
 30
0.0
 40
0.0120880563029317
 50
0.0
 51
90.0
  0
ARC
  5
3F454
  8
OBJ
  6
CONTINUOUS
 10
44.824899120664718
 20
6.4468099478071119
 30
0.0
 40
0.0120880563029317
 50
270.0
 51
0.0
  0
LINE
  5
3F455
  8
OBJ
  6
CONTINUOUS
 10
44.958395949311708
 20
6.405818824621706
 30
0.0
 11
44.92085256850195
 21
6.3841431436049083
 31
0.0
  0
TEXT
  5
3F456
  8
OBJ
  6
CONTINUOUS
 10
44.737867943327338
 20
6.4716544876706363
 30
0.0
 40
0.0568138646237789
  1
Ic
  7
SIMPLEX
  0
LINE
  5
3F457
  8
OBJ
  6
CONTINUOUS
 10
44.70084415655883
 20
6.5502189371511124
 30
0.0
 11
44.70084415655883
 21
6.4468099478071119
 31
0.0
  0
ARC
  5
3F458
  8
OBJ
  6
CONTINUOUS
 10
44.712932212861773
 20
6.5502189371511053
 30
0.0
 40
0.0120880563029317
 50
90.0
 51
180.0
  0
ARC
  5
3F459
  8
OBJ
  6
CONTINUOUS
 10
44.712932212861773
 20
6.4468099478071119
 30
0.0
 40
0.0120880563029317
 50
180.0
 51
270.0
  0
LINE
  5
3F45A
  8
OBJ
  6
CONTINUOUS
 10
44.639219594615291
 20
6.4614805363057872
 30
0.0
 11
44.639219594615291
 21
6.5219314406624358
 31
0.0
  0
ARC
  5
3F45B
  8
OBJ
  6
CONTINUOUS
 10
44.627131538312369
 20
6.4614805363057872
 30
0.0
 40
0.0120880563029317
 50
270.0
 51
0.0
  0
ARC
  5
3F45C
  8
OBJ
  6
CONTINUOUS
 10
44.627131538312369
 20
6.5219314406624358
 30
0.0
 40
0.0120880563029317
 50
0.0
 51
90.0
  0
LINE
  5
3F45D
  8
OBJ
  6
CONTINUOUS
 10
44.824899120664718
 20
6.562306993454043
 30
0.0
 11
44.712932212861773
 21
6.562306993454043
 31
0.0
  0
LINE
  5
3F45E
  8
OBJ
  6
CONTINUOUS
 10
44.712932212861773
 20
6.4347218915041786
 30
0.0
 11
44.824899120664718
 21
6.4347218915041786
 31
0.0
  0
LINE
  5
3F45F
  8
OBJ
  6
CONTINUOUS
 10
44.829002078571342
 20
6.2716980523497483
 30
0.0
 11
44.829002078571342
 21
6.3321489567063969
 31
0.0
  0
ARC
  5
3F460
  8
OBJ
  6
CONTINUOUS
 10
44.816914022268399
 20
6.2716980523497483
 30
0.0
 40
0.0120880563029317
 50
270.0
 51
0.0
  0
ARC
  5
3F461
  8
OBJ
  6
CONTINUOUS
 10
44.816914022268399
 20
6.3321489567063969
 30
0.0
 40
0.0120880563029317
 50
0.0
 51
90.0
  0
LINE
  5
3F462
  8
OBJ
  6
CONTINUOUS
 10
44.92085256850195
 20
6.3407917815713093
 30
0.0
 11
44.958395949311708
 21
6.3191161005545098
 31
0.0
  0
LINE
  5
3F463
  8
OBJ
  6
CONTINUOUS
 10
44.768915666763242
 20
6.2060363406656718
 30
0.0
 11
44.731372285953498
 21
6.1843606596488714
 31
0.0
  0
ARC
  5
3F464
  8
OBJ
  6
CONTINUOUS
 10
44.723223066491578
 20
6.2716980523497554
 30
0.0
 40
0.0120880563029317
 50
180.0
 51
269.99999999999972
  0
ARC
  5
3F465
  8
OBJ
  6
CONTINUOUS
 10
44.723223066491578
 20
6.3321489567063969
 30
0.0
 40
0.0120880563029317
 50
90.0
 51
180.0
  0
LINE
  5
3F466
  8
OBJ
  6
CONTINUOUS
 10
44.711135010188649
 20
6.3321489567063969
 30
0.0
 11
44.711135010188649
 21
6.2716980523497554
 31
0.0
  0
LINE
  5
3F467
  8
OBJ
  6
CONTINUOUS
 10
44.806459047573
 20
6.1843606596488714
 30
0.0
 11
44.768915666763242
 21
6.2060363406656718
 31
0.0
  0
LINE
  5
3F468
  8
OBJ
  6
CONTINUOUS
 10
44.816914022268399
 20
6.3442370130093266
 30
0.0
 11
44.723223066491578
 21
6.3442370130093266
 31
0.0
  0
TEXT
  5
3F469
  8
OBJ
  6
CONTINUOUS
 10
44.733353019788296
 20
6.2796547578086219
 30
0.0
 40
0.05
  1
LO
  7
SIMPLEX
  0
LINE
  5
3F46A
  8
OBJ
  6
CONTINUOUS
 10
44.723223066491578
 20
6.2596099960468168
 30
0.0
 11
44.816914022268399
 21
6.2596099960468168
 31
0.0
  0
LINE
  5
3F46B
  8
OBJ
  6
CONTINUOUS
 10
44.768915666763242
 20
6.3453402793695979
 30
0.0
 11
44.768915666763242
 21
6.4347218915041786
 31
0.0
  0
LINE
  5
3F46C
  8
OBJ
  6
CONTINUOUS
 10
44.92085256850195
 20
6.3841431436049083
 30
0.0
 11
44.92085256850195
 21
6.3407917815713093
 31
0.0
  0
LINE
  5
3F46D
  8
OBJ
  6
CONTINUOUS
 10
44.731372285953498
 20
6.141009297615275
 30
0.0
 11
44.768915666763242
 21
6.1193336165984791
 31
0.0
  0
LINE
  5
3F46E
  8
OBJ
  6
CONTINUOUS
 10
44.768915666763242
 20
6.1193336165984791
 30
0.0
 11
44.806459047573
 21
6.141009297615275
 31
0.0
  0
LINE
  5
3F46F
  8
OBJ
  6
CONTINUOUS
 10
44.806459047573
 20
6.141009297615275
 30
0.0
 11
44.806459047573
 21
6.1843606596488714
 31
0.0
  0
CIRCLE
  5
3F470
  8
OBJ
  6
CONTINUOUS
 10
44.768915666763242
 20
6.1626849786320701
 30
0.0
 40
0.028168665929907
  0
LINE
  5
3F471
  8
OBJ
  6
CONTINUOUS
 10
44.731372285953498
 20
6.1843606596488714
 30
0.0
 11
44.731372285953498
 21
6.141009297615275
 31
0.0
  0
CIRCLE
  5
3F472
  8
OBJ
  6
CONTINUOUS
 62
     7
 10
45.148480634675309
 20
6.1626849786320701
 30
0.0
 40
0.0779075228723947
  0
LINE
  5
3F473
  8
OBJ
  6
CONTINUOUS
 62
     7
 10
44.984917739637659
 20
5.8334099157247588
 30
0.0
 11
44.984917739637659
 21
5.7649612969094024
 31
0.0
  0
ARC
  5
3F474
  8
OBJ
  6
CONTINUOUS
 62
     7
 10
45.362669499104278
 20
6.1072043909861513
 30
0.0
 40
0.0755503518933231
 50
270.0
 51
0.0
  0
POINT
  5
3F475
  8
OBJ
  6
BYBLOCK
 62
     0
 10
45.475995026944261
 20
5.8334099157247588
 30
0.0
  0
TEXT
  5
3F476
  8
OBJ
  6
CONTINUOUS
 10
45.302700471656387
 20
6.4694372417646608
 30
0.0
 40
0.05
  1
HI
  7
SIMPLEX
  0
LINE
  5
3F477
  8
OBJ
  6
CONTINUOUS
 10
45.292570518359668
 20
6.4493924800028557
 30
0.0
 11
45.386261474136489
 21
6.4493924800028557
 31
0.0
  0
LINE
  5
3F478
  8
OBJ
  6
CONTINUOUS
 10
45.386261474136489
 20
6.5340194969653664
 30
0.0
 11
45.292570518359668
 21
6.5340194969653664
 31
0.0
  0
LINE
  5
3F479
  8
OBJ
  6
CONTINUOUS
 10
45.375806499441083
 20
6.3841431436049083
 30
0.0
 11
45.338263118631332
 21
6.405818824621706
 31
0.0
  0
LINE
  5
3F47A
  8
OBJ
  6
CONTINUOUS
 10
45.338263118631332
 20
6.3191161005545098
 30
0.0
 11
45.375806499441083
 21
6.3407917815713093
 31
0.0
  0
CIRCLE
  5
3F47B
  8
OBJ
  6
CONTINUOUS
 10
45.338263118631332
 20
6.3624674625881088
 30
0.0
 40
0.028168665929907
  0
CIRCLE
  5
3F47C
  8
OBJ
  6
CONTINUOUS
 62
     7
 10
45.338263118631332
 20
6.3624674625881088
 30
0.0
 40
0.0779075228723947
  0
LINE
  5
3F47D
  8
OBJ
  6
CONTINUOUS
 10
45.338263118631332
 20
6.405818824621706
 30
0.0
 11
45.300719737821581
 21
6.3841431436049083
 31
0.0
  0
LINE
  5
3F47E
  8
OBJ
  6
CONTINUOUS
 10
45.280482462056732
 20
6.5219314406624358
 30
0.0
 11
45.280482462056732
 21
6.4614805363057943
 31
0.0
  0
ARC
  5
3F47F
  8
OBJ
  6
CONTINUOUS
 10
45.204464088576771
 20
6.4468099478071119
 30
0.0
 40
0.0120880563029317
 50
270.0
 51
0.0
  0
ARC
  5
3F480
  8
OBJ
  6
CONTINUOUS
 10
45.204464088576771
 20
6.5502189371511124
 30
0.0
 40
0.0120880563029317
 50
0.0
 51
90.0
  0
LINE
  5
3F481
  8
OBJ
  6
CONTINUOUS
 10
45.216552144879721
 20
6.4468099478071119
 30
0.0
 11
45.216552144879721
 21
6.5502189371511124
 31
0.0
  0
ARC
  5
3F482
  8
OBJ
  6
CONTINUOUS
 10
45.092497180773833
 20
6.4468099478071119
 30
0.0
 40
0.0120880563029317
 50
180.0
 51
270.0
  0
ARC
  5
3F483
  8
OBJ
  6
CONTINUOUS
 10
45.092497180773833
 20
6.5502189371511053
 30
0.0
 40
0.0120880563029317
 50
90.0
 51
180.0
  0
LINE
  5
3F484
  8
OBJ
  6
CONTINUOUS
 10
45.080409124470883
 20
6.5502189371511124
 30
0.0
 11
45.080409124470883
 21
6.4468099478071119
 31
0.0
  0
TEXT
  5
3F485
  8
OBJ
  6
CONTINUOUS
 10
45.117432911239398
 20
6.4716544876706363
 30
0.0
 40
0.0568138646237789
  1
In
  7
SIMPLEX
  0
LINE
  5
3F486
  8
OBJ
  6
CONTINUOUS
 10
45.092497180773833
 20
6.4347218915041786
 30
0.0
 11
45.204464088576771
 21
6.4347218915041786
 31
0.0
  0
LINE
  5
3F487
  8
OBJ
  6
CONTINUOUS
 10
45.204464088576771
 20
6.562306993454043
 30
0.0
 11
45.092497180773833
 21
6.562306993454043
 31
0.0
  0
ARC
  5
3F488
  8
OBJ
  6
CONTINUOUS
 10
45.292570518359668
 20
6.4614805363057943
 30
0.0
 40
0.0120880563029317
 50
180.0
 51
269.99999999999972
  0
ARC
  5
3F489
  8
OBJ
  6
CONTINUOUS
 10
45.292570518359668
 20
6.5219314406624358
 30
0.0
 40
0.0120880563029317
 50
90.0
 51
180.0
  0
LINE
  5
3F48A
  8
OBJ
  6
CONTINUOUS
 10
45.300719737821581
 20
6.3407917815713093
 30
0.0
 11
45.338263118631332
 21
6.3191161005545098
 31
0.0
  0
ARC
  5
3F48B
  8
OBJ
  6
CONTINUOUS
 10
45.196478990180452
 20
6.3321489567063969
 30
0.0
 40
0.0120880563029317
 50
0.0
 51
90.0
  0
ARC
  5
3F48C
  8
OBJ
  6
CONTINUOUS
 10
45.196478990180452
 20
6.2716980523497483
 30
0.0
 40
0.0120880563029317
 50
270.0
 51
0.0
  0
LINE
  5
3F48D
  8
OBJ
  6
CONTINUOUS
 10
45.208567046483388
 20
6.2716980523497483
 30
0.0
 11
45.208567046483388
 21
6.3321489567063969
 31
0.0
  0
LINE
  5
3F48E
  8
OBJ
  6
CONTINUOUS
 10
45.148480634675309
 20
6.2060363406656718
 30
0.0
 11
45.110937253865551
 21
6.1843606596488714
 31
0.0
  0
LINE
  5
3F48F
  8
OBJ
  6
CONTINUOUS
 10
45.090699978100709
 20
6.3321489567063969
 30
0.0
 11
45.090699978100709
 21
6.2716980523497554
 31
0.0
  0
ARC
  5
3F490
  8
OBJ
  6
CONTINUOUS
 10
45.102788034403638
 20
6.3321489567063969
 30
0.0
 40
0.0120880563029317
 50
90.0
 51
180.0
  0
ARC
  5
3F491
  8
OBJ
  6
CONTINUOUS
 10
45.102788034403638
 20
6.2716980523497554
 30
0.0
 40
0.0120880563029317
 50
180.0
 51
269.99999999999972
  0
LINE
  5
3F492
  8
OBJ
  6
CONTINUOUS
 10
45.18602401548506
 20
6.1843606596488714
 30
0.0
 11
45.148480634675309
 21
6.2060363406656718
 31
0.0
  0
LINE
  5
3F493
  8
OBJ
  6
CONTINUOUS
 10
45.102788034403638
 20
6.2596099960468168
 30
0.0
 11
45.196478990180452
 21
6.2596099960468168
 31
0.0
  0
TEXT
  5
3F494
  8
OBJ
  6
CONTINUOUS
 10
45.112917987700357
 20
6.2796547578086219
 30
0.0
 40
0.05
  1
LO
  7
SIMPLEX
  0
LINE
  5
3F495
  8
OBJ
  6
CONTINUOUS
 10
45.196478990180452
 20
6.3442370130093266
 30
0.0
 11
45.102788034403638
 21
6.3442370130093266
 31
0.0
  0
LINE
  5
3F496
  8
OBJ
  6
CONTINUOUS
 10
45.148480634675309
 20
6.3453402793695979
 30
0.0
 11
45.148480634675309
 21
6.4347218915041786
 31
0.0
  0
LINE
  5
3F497
  8
OBJ
  6
CONTINUOUS
 10
45.300719737821581
 20
6.3841431436049083
 30
0.0
 11
45.300719737821581
 21
6.3407917815713093
 31
0.0
  0
ARC
  5
3F498
  8
OBJ
  6
CONTINUOUS
 10
45.006696506224429
 20
6.5219314406624358
 30
0.0
 40
0.0120880563029317
 50
0.0
 51
90.0
  0
ARC
  5
3F499
  8
OBJ
  6
CONTINUOUS
 10
45.006696506224429
 20
6.4614805363057872
 30
0.0
 40
0.0120880563029317
 50
270.0
 51
0.0
  0
LINE
  5
3F49A
  8
OBJ
  6
CONTINUOUS
 10
45.018784562527358
 20
6.4614805363057872
 30
0.0
 11
45.018784562527358
 21
6.5219314406624358
 31
0.0
  0
LINE
  5
3F49B
  8
OBJ
  6
CONTINUOUS
 10
44.995939330121459
 20
6.3407917815713093
 30
0.0
 11
44.995939330121459
 21
6.3841431436049083
 31
0.0
  0
LINE
  5
3F49C
  8
OBJ
  6
CONTINUOUS
 10
45.110937253865551
 20
6.141009297615275
 30
0.0
 11
45.148480634675309
 21
6.1193336165984791
 31
0.0
  0
LINE
  5
3F49D
  8
OBJ
  6
CONTINUOUS
 10
45.148480634675309
 20
6.1193336165984791
 30
0.0
 11
45.18602401548506
 21
6.141009297615275
 31
0.0
  0
LINE
  5
3F49E
  8
OBJ
  6
CONTINUOUS
 10
45.18602401548506
 20
6.141009297615275
 30
0.0
 11
45.18602401548506
 21
6.1843606596488714
 31
0.0
  0
LINE
  5
3F49F
  8
OBJ
  6
CONTINUOUS
 10
45.110937253865551
 20
6.1843606596488714
 30
0.0
 11
45.110937253865551
 21
6.141009297615275
 31
0.0
  0
CIRCLE
  5
3F4A0
  8
OBJ
  6
CONTINUOUS
 10
45.148480634675309
 20
6.1626849786320701
 30
0.0
 40
0.028168665929907
  0
LINE
  5
3F4A1
  8
OBJ
  6
CONTINUOUS
 10
45.398349530439418
 20
6.4614805363057872
 30
0.0
 11
45.398349530439418
 21
6.5219314406624358
 31
0.0
  0
ARC
  5
3F4A2
  8
OBJ
  6
CONTINUOUS
 10
45.386261474136489
 20
6.4614805363057872
 30
0.0
 40
0.0120880563029317
 50
270.0
 51
0.0
  0
ARC
  5
3F4A3
  8
OBJ
  6
CONTINUOUS
 10
45.386261474136489
 20
6.5219314406624358
 30
0.0
 40
0.0120880563029317
 50
0.0
 51
90.0
  0
LINE
  5
3F4A4
  8
OBJ
  6
CONTINUOUS
 10
45.375806499441083
 20
6.3407917815713093
 30
0.0
 11
45.375806499441083
 21
6.3841431436049083
 31
0.0
  0
LINE
  5
3F4A5
  8
OBJ
  6
CONTINUOUS
 62
     7
 10
44.460447196794213
 20
7.8750826252899113
 30
0.0
 11
43.31842807757473
 21
7.8750826252899113
 31
0.0
  0
CIRCLE
  5
3F4A6
  8
OBJ
  6
CONTINUOUS
 62
     7
 10
43.554749578297063
 20
7.2993889438627884
 30
0.0
 40
0.0212447589524025
  0
LINE
  5
3F4A7
  8
OBJ
  6
CONTINUOUS
 62
     7
 10
42.945813742036862
 20
7.4595556898766393
 30
0.0
 11
45.112597834337379
 21
7.4595556898766322
 31
0.0
  0
LINE
  5
3F4A8
  8
OBJ
  6
CONTINUOUS
 62
     7
 10
42.945813742036862
 20
7.3537851972259816
 30
0.0
 11
45.112597834337379
 21
7.3537851972259816
 31
0.0
  0
LINE
  5
3F4A9
  8
OBJ
  6
CONTINUOUS
 62
     7
 10
45.362669499104278
 20
7.5804362529059572
 30
0.0
 11
42.416205775264679
 21
7.5804362529059572
 31
0.0
  0
LINE
  5
3F4AA
  8
OBJ
  6
CONTINUOUS
 62
     7
 10
42.302880247424689
 20
7.7318391581001729
 30
0.0
 11
45.475995026944261
 21
7.7318391581001729
 31
0.0
  0
ARC
  5
3F4AC
  8
OBJ
  6
CONTINUOUS
 62
     7
 10
42.416205775264672
 20
7.504885901012627
 30
0.0
 40
0.0755503518933231
 50
90.0
 51
180.0
  0
ARC
  5
3F4AD
  8
OBJ
  6
CONTINUOUS
 10
42.808361063552191
 20
7.4541160645403144
 30
0.0
 40
0.0120880563029317
 50
354.61068824002513
 51
89.999999999997371
  0
LINE
  5
3F4AE
  8
OBJ
  6
CONTINUOUS
 10
42.820395684635052
 20
7.4529807229287188
 30
0.0
 11
42.811158585007327
 21
7.355067466874976
 31
0.0
  0
CIRCLE
  5
3F4AF
  8
OBJ
  6
CONTINUOUS
 10
42.800818754704643
 20
7.4374498326867542
 30
0.0
 40
0.0135952901026457
  0
LINE
  5
3F4B0
  8
OBJ
  6
CONTINUOUS
 62
     7
 10
42.82221336633939
 20
7.3380707240321721
 30
0.0
 11
42.656002592174083
 21
7.3380707240321721
 31
0.0
  0
LINE
  5
3F4B1
  8
OBJ
  6
CONTINUOUS
 62
     7
 10
42.82221336633939
 20
7.4722481489947068
 30
0.0
 11
42.656002592174083
 21
7.4722481489947201
 31
0.0
  0
TEXT
  5
3F4B2
  8
OBJ
  6
CONTINUOUS
 10
42.62099510391387
 20
6.6655448788701781
 30
0.0
 40
0.0755503518933231
  1
NEXUS 1250
  7
SIMPLEX
  0
LINE
  5
3F4B3
  8
OBJ
  6
CONTINUOUS
 10
42.656002592174083
 20
7.4722481489947201
 30
0.0
 11
42.656002592174083
 21
7.4722481489947201
 31
0.0
  0
ARC
  5
3F4B4
  8
OBJ
  6
CONTINUOUS
 10
42.669346590606501
 20
7.4541160645403188
 30
0.0
 40
0.0120880563029317
 50
89.999999999997044
 51
185.65442082263891
  0
LINE
  5
3F4B5
  8
OBJ
  6
CONTINUOUS
 62
     7
 10
42.808361063552191
 20
7.4662041208432388
 30
0.0
 11
42.669346590606501
 21
7.4662041208432486
 31
0.0
  0
LINE
  5
3F4B6
  8
OBJ
  6
CONTINUOUS
 62
     7
 10
42.589518282507953
 20
7.4450500223131222
 30
0.0
 11
42.61818513169645
 21
7.4450500223131222
 31
0.0
  0
ARC
  5
3F4B7
  8
OBJ
  6
CONTINUOUS
 62
     7
 10
42.656002592174069
 20
7.4323575631950343
 30
0.0
 40
0.0398905857996746
 50
90.0
 51
161.44699546497839
  0
ARC
  5
3F4B8
  8
OBJ
  6
CONTINUOUS
 10
42.799123963924487
 20
7.3562028084865716
 30
0.0
 40
0.0120880563029317
 50
270.00000000000023
 51
354.61068824002541
  0
CIRCLE
  5
3F4B9
  8
OBJ
  6
CONTINUOUS
 10
42.792167156266302
 20
7.3769346678390502
 30
0.0
 40
0.0129773264183839
  0
ARC
  5
3F4BA
  8
OBJ
  6
CONTINUOUS
 10
42.679040972394013
 20
7.3562028084865716
 30
0.0
 40
0.0120880563029317
 50
185.65442082264019
 51
270.0
  0
CIRCLE
  5
3F4BB
  8
OBJ
  6
CONTINUOUS
 10
42.686494689486011
 20
7.3769346678390502
 30
0.0
 40
0.0129773264183839
  0
CIRCLE
  5
3F4BC
  8
OBJ
  6
CONTINUOUS
 10
42.722954778384548
 20
7.3769346678390502
 30
0.0
 40
0.0129773264183839
  0
CIRCLE
  5
3F4BD
  8
OBJ
  6
CONTINUOUS
 10
42.75447112218945
 20
7.3769346678390502
 30
0.0
 40
0.0129773264183839
  0
LINE
  5
3F4BE
  8
OBJ
  6
CONTINUOUS
 62
     7
 10
42.799123963924487
 20
7.3441147521836374
 30
0.0
 11
42.679040972394013
 21
7.3441147521836374
 31
0.0
  0
LINE
  5
3F4BF
  8
OBJ
  6
CONTINUOUS
 62
     7
 10
42.79169102417449
 20
7.2948559227491927
 30
0.0
 11
42.79169102417449
 21
7.2495257116131953
 31
0.0
  0
LINE
  5
3F4C0
  8
OBJ
  6
CONTINUOUS
 62
     7
 10
42.685920531523841
 20
7.2948559227491927
 30
0.0
 11
42.685920531523841
 21
7.2495257116131953
 31
0.0
  0
LINE
  5
3F4C1
  8
OBJ
  6
CONTINUOUS
 62
     7
 10
42.79169102417449
 20
7.2948559227491927
 30
0.0
 11
42.685920531523841
 21
7.2948559227491927
 31
0.0
  0
LINE
  5
3F4C2
  8
OBJ
  6
CONTINUOUS
 62
     7
 10
42.685920531523841
 20
7.2495257116131953
 30
0.0
 11
42.79169102417449
 21
7.2495257116131953
 31
0.0
  0
LINE
  5
3F4C3
  8
OBJ
  6
CONTINUOUS
 62
     7
 10
42.589518282507953
 20
7.36526885071377
 30
0.0
 11
42.61818513169645
 21
7.36526885071377
 31
0.0
  0
CIRCLE
  5
3F4C4
  8
OBJ
  6
CONTINUOUS
 10
42.589518282507953
 20
7.4051594365134434
 30
0.0
 40
0.0156178499896015
  0
ARC
  5
3F4C5
  8
OBJ
  6
CONTINUOUS
 62
     7
 10
42.656002592174069
 20
7.3779613098318482
 30
0.0
 40
0.0398905857996746
 50
198.5530045350211
 51
270.0
  0
LINE
  5
3F4C6
  8
OBJ
  6
CONTINUOUS
 10
42.657317351586677
 20
7.4529250507759812
 30
0.0
 11
42.667011733374181
 21
7.3550117947222331
 31
0.0
  0
CIRCLE
  5
3F4C7
  8
OBJ
  6
CONTINUOUS
 10
42.678461125971047
 20
7.4374498326867542
 30
0.0
 40
0.0135952901026457
  0
CIRCLE
  5
3F4C8
  8
OBJ
  6
CONTINUOUS
 10
42.711213397144469
 20
7.4374498326867542
 30
0.0
 40
0.0135952901026457
  0
CIRCLE
  5
3F4C9
  8
OBJ
  6
CONTINUOUS
 10
42.742111795074898
 20
7.4374498326867542
 30
0.0
 40
0.0135952901026457
  0
CIRCLE
  5
3F4CA
  8
OBJ
  6
CONTINUOUS
 10
42.771156284142741
 20
7.4374498326867542
 30
0.0
 40
0.0135952901026457
  0
ARC
  5
3F4CB
  8
OBJ
  6
CONTINUOUS
 62
     7
 10
42.589518282507953
 20
7.4051594365134434
 30
0.0
 40
0.0398905857996746
 50
90.0
 51
270.0
  0
ARC
  5
3F4CC
  8
OBJ
  6
CONTINUOUS
 62
     7
 10
42.82221336633939
 20
7.4323575631950343
 30
0.0
 40
0.0398905857996746
 50
18.553004535021518
 51
90.0
  0
LINE
  5
3F4CD
  8
OBJ
  6
CONTINUOUS
 62
     7
 10
42.860030826817017
 20
7.4450500223131222
 30
0.0
 11
42.888697676005521
 21
7.4450500223131222
 31
0.0
  0
ARC
  5
3F4CE
  8
OBJ
  6
CONTINUOUS
 62
     7
 10
42.82221336633939
 20
7.3779613098318482
 30
0.0
 40
0.0398905857996746
 50
270.0
 51
341.44699546497878
  0
CIRCLE
  5
3F4CF
  8
OBJ
  6
CONTINUOUS
 10
42.888697676005521
 20
7.4051594365134434
 30
0.0
 40
0.0156178499896015
  0
LINE
  5
3F4D0
  8
OBJ
  6
CONTINUOUS
 62
     7
 10
42.860030826817017
 20
7.36526885071377
 30
0.0
 11
42.888697676005521
 21
7.36526885071377
 31
0.0
  0
CIRCLE
  5
3F4D1
  8
OBJ
  6
CONTINUOUS
 62
     7
 10
43.028919129119522
 20
7.2993889438627884
 30
0.0
 40
0.0212447589524025
  0
CIRCLE
  5
3F4D2
  8
OBJ
  6
CONTINUOUS
 62
     7
 10
43.119579551391517
 20
7.2993889438627884
 30
0.0
 40
0.0212447589524025
  0
LINE
  5
3F4D3
  8
OBJ
  6
CONTINUOUS
 62
     7
 10
42.945813742036862
 20
7.3537851972259816
 30
0.0
 11
42.945813742036862
 21
7.4595556898766393
 31
0.0
  0
ARC
  5
3F4D4
  8
OBJ
  6
CONTINUOUS
 62
     7
 10
42.888697676005521
 20
7.4051594365134434
 30
0.0
 40
0.0398905857996746
 50
270.0
 51
90.0
  0
CIRCLE
  5
3F4D5
  8
OBJ
  6
CONTINUOUS
 62
     7
 10
43.373428733753073
 20
7.2993889438627884
 30
0.0
 40
0.0212447589524025
  0
CIRCLE
  5
3F4D6
  8
OBJ
  6
CONTINUOUS
 62
     7
 10
43.464089156025047
 20
7.2993889438627884
 30
0.0
 40
0.0212447589524025
  0
CIRCLE
  5
3F4D7
  8
OBJ
  6
CONTINUOUS
 62
     7
 10
43.210239973663477
 20
7.2993889438627884
 30
0.0
 40
0.0212447589524025
  0
LINE
  5
3F4D8
  8
OBJ
  6
CONTINUOUS
 62
     7
 10
42.793957534731291
 20
7.8002877769155212
 30
0.0
 11
43.022799550616163
 21
7.8750826252899113
 31
0.0
  0
LINE
  5
3F4D9
  8
OBJ
  6
CONTINUOUS
 62
     7
 10
42.793957534731291
 20
7.8002877769155283
 30
0.0
 11
42.793957534731291
 21
7.7318391581001729
 31
0.0
  0
LINE
  5
3F4DA
  8
OBJ
  6
CONTINUOUS
 62
     7
 10
43.251641566501043
 20
7.8750826252899113
 30
0.0
 11
43.022799550616163
 21
7.8750826252899113
 31
0.0
  0
ARC
  5
3F4DB
  8
OBJ
  6
CONTINUOUS
 62
     7
 10
43.285034822037879
 20
7.800287776915515
 30
0.0
 40
0.0333932555368488
 50
180.0
 51
0.0
  0
LINE
  5
3F4DC
  8
OBJ
  6
CONTINUOUS
 62
     7
 10
43.251641566501043
 20
7.8002877769155212
 30
0.0
 11
43.251641566501043
 21
7.8750826252899113
 31
0.0
  0
LINE
  5
3F4DD
  8
OBJ
  6
CONTINUOUS
 62
     7
 10
43.31842807757473
 20
7.8002877769155212
 30
0.0
 11
43.31842807757473
 21
7.8750826252899113
 31
0.0
  0
ARC
  5
3F4DE
  8
OBJ
  6
HIDDEN
 62
     7
 10
45.005618536056417
 20
6.9745224307215006
 30
0.0
 40
0.0398905857996746
 50
198.5530045350211
 51
270.0
  0
ARC
  5
3F4DF
  8
OBJ
  6
HIDDEN
 62
     7
 10
45.005618536056417
 20
7.0289186840846938
 30
0.0
 40
0.0398905857996746
 50
90.0
 51
161.44699546497839
  0
LINE
  5
3F4E0
  8
OBJ
  6
CONTINUOUS
 62
     7
 10
44.946387060172057
 20
7.3031664614574616
 30
0.0
 11
45.112597834337379
 21
7.3031664614574616
 31
0.0
  0
LINE
  5
3F4E1
  8
OBJ
  6
HIDDEN
 62
     7
 10
45.127707904716047
 20
7.3114770001657261
 30
0.0
 11
44.931276989793382
 21
7.3114770001657261
 31
0.0
  0
LINE
  5
3F4E2
  8
OBJ
  6
HIDDEN
 62
     7
 10
44.931276989793382
 20
7.1150460852430788
 30
0.0
 11
45.127707904716047
 21
7.1150460852430788
 31
0.0
  0
LINE
  5
3F4E3
  8
OBJ
  6
CONTINUOUS
 62
     7
 10
44.946387060172057
 20
7.099180511345482
 30
0.0
 11
45.112597834337379
 21
7.099180511345482
 31
0.0
  0
LINE
  5
3F4E4
  8
OBJ
  6
CONTINUOUS
 62
     7
 10
44.984917739637659
 20
7.8002877769155212
 30
0.0
 11
44.75607572375278
 21
7.8750826252899211
 31
0.0
  0
CIRCLE
  5
3F4E5
  8
OBJ
  6
CONTINUOUS
 62
     7
 10
44.243768787564143
 20
7.2993889438627884
 30
0.0
 40
0.0212447589524025
  0
CIRCLE
  5
3F4E6
  8
OBJ
  6
CONTINUOUS
 62
     7
 10
43.899259182930606
 20
7.2993889438627884
 30
0.0
 40
0.0212447589524025
  0
CIRCLE
  5
3F4E7
  8
OBJ
  6
CONTINUOUS
 62
     7
 10
43.808598760658612
 20
7.2993889438627884
 30
0.0
 40
0.0212447589524025
  0
CIRCLE
  5
3F4E8
  8
OBJ
  6
CONTINUOUS
 62
     7
 10
43.717938338386631
 20
7.2993889438627884
 30
0.0
 40
0.0212447589524025
  0
CIRCLE
  5
3F4E9
  8
OBJ
  6
CONTINUOUS
 62
     7
 10
44.153108365292169
 20
7.2993889438627884
 30
0.0
 40
0.0212447589524025
  0
CIRCLE
  5
3F4EA
  8
OBJ
  6
CONTINUOUS
 62
     7
 10
44.062447943020182
 20
7.2993889438627884
 30
0.0
 40
0.0212447589524025
  0
LINE
  5
3F4EB
  8
OBJ
  6
HIDDEN
 62
     7
 10
44.939134226390287
 20
7.0416111432027773
 30
0.0
 11
44.967801075578812
 21
7.0416111432027773
 31
0.0
  0
LINE
  5
3F4EC
  8
OBJ
  6
HIDDEN
 62
     7
 10
44.939134226390287
 20
6.9618299716034251
 30
0.0
 11
44.967801075578812
 21
6.9618299716034251
 31
0.0
  0
ARC
  5
3F4ED
  8
OBJ
  6
HIDDEN
 62
     7
 10
44.939134226390287
 20
7.0017205574030958
 30
0.0
 40
0.0398905857996746
 50
90.0
 51
270.0
  0
LINE
  5
3F4EE
  8
OBJ
  6
HIDDEN
 62
     7
 10
44.931276989793382
 20
7.1150460852430788
 30
0.0
 11
44.931276989793382
 21
7.3114770001657261
 31
0.0
  0
LINE
  5
3F4EF
  8
OBJ
  6
CONTINUOUS
 62
     7
 10
44.946387060172057
 20
7.099180511345482
 30
0.0
 11
44.946387060172057
 21
7.3031664614574616
 31
0.0
  0
LINE
  5
3F4F0
  8
OBJ
  6
CONTINUOUS
 62
     7
 10
44.75607572375278
 20
7.8750826252899211
 30
0.0
 11
44.5272337078679
 21
7.8750826252899211
 31
0.0
  0
ARC
  5
3F4F1
  8
OBJ
  6
CONTINUOUS
 62
     7
 10
44.49384045233105
 20
7.800287776915515
 30
0.0
 40
0.0333932555368488
 50
180.0
 51
0.0
  0
LINE
  5
3F4F2
  8
OBJ
  6
CONTINUOUS
 62
     7
 10
44.460447196794213
 20
7.8002877769155212
 30
0.0
 11
44.460447196794213
 21
7.8750826252899113
 31
0.0
  0
LINE
  5
3F4F3
  8
OBJ
  6
CONTINUOUS
 62
     7
 10
44.5272337078679
 20
7.8002877769155212
 30
0.0
 11
44.5272337078679
 21
7.8750826252899211
 31
0.0
  0
ARC
  5
3F4F4
  8
OBJ
  6
CONTINUOUS
 62
     7
 10
45.362669499104278
 20
7.504885901012627
 30
0.0
 40
0.0755503518933231
 50
0.0
 51
89.999999999999915
  0
ARC
  5
3F4F5
  8
OBJ
  6
HIDDEN
 62
     7
 10
45.171829310221739
 20
7.0289186840846938
 30
0.0
 40
0.0398905857996746
 50
18.553004535021518
 51
90.0
  0
LINE
  5
3F4F6
  8
OBJ
  6
HIDDEN
 62
     7
 10
45.209646770699358
 20
7.0416111432027773
 30
0.0
 11
45.238313619887847
 21
7.0416111432027773
 31
0.0
  0
LINE
  5
3F4F7
  8
OBJ
  6
HIDDEN
 62
     7
 10
45.209646770699358
 20
6.9618299716034251
 30
0.0
 11
45.238313619887847
 21
6.9618299716034251
 31
0.0
  0
ARC
  5
3F4F8
  8
OBJ
  6
HIDDEN
 62
     7
 10
45.171829310221739
 20
6.9745224307215006
 30
0.0
 40
0.0398905857996746
 50
270.0
 51
341.44699546497878
  0
LINE
  5
3F4F9
  8
OBJ
  6
HIDDEN
 62
     7
 10
45.171829310221739
 20
6.934631844921828
 30
0.0
 11
45.005618536056417
 21
6.934631844921828
 31
0.0
  0
CIRCLE
  5
3F4FA
  8
OBJ
  6
CONTINUOUS
 62
     7
 10
45.095221253401917
 20
6.7826245369124587
 30
0.0
 40
0.0944379398666538
  0
ARC
  5
3F4FB
  8
OBJ
  6
HIDDEN
 62
     7
 10
45.238313619887847
 20
7.0017205574030958
 30
0.0
 40
0.0398905857996746
 50
270.0
 51
90.0
  0
CIRCLE
  5
3F4FC
  8
OBJ
  6
CONTINUOUS
 62
     7
 10
45.197214228457888
 20
7.118068099318811
 30
0.0
 40
0.0212447589524025
  0
CIRCLE
  5
3F4FD
  8
OBJ
  6
CONTINUOUS
 62
     7
 10
45.197214228457888
 20
7.2087285215908041
 30
0.0
 40
0.0212447589524025
  0
CIRCLE
  5
3F4FE
  8
OBJ
  6
CONTINUOUS
 62
     7
 10
45.197214228457888
 20
7.2993889438627884
 30
0.0
 40
0.0212447589524025
  0
LINE
  5
3F4FF
  8
OBJ
  6
HIDDEN
 62
     7
 10
45.127707904716047
 20
7.1150460852430788
 30
0.0
 11
45.127707904716047
 21
7.3114770001657261
 31
0.0
  0
LINE
  5
3F500
  8
OBJ
  6
CONTINUOUS
 62
     7
 10
45.112597834337379
 20
7.099180511345482
 30
0.0
 11
45.112597834337379
 21
7.3031664614574616
 31
0.0
  0
LINE
  5
3F501
  8
OBJ
  6
HIDDEN
 62
     7
 10
45.171829310221739
 20
7.0688092698843734
 30
0.0
 11
45.005618536056417
 21
7.0688092698843734
 31
0.0
  0
CIRCLE
  5
3F502
  8
OBJ
  6
CONTINUOUS
 62
     7
 10
45.197214228457888
 20
7.4066704435513113
 30
0.0
 40
0.0330608339885182
  0
LINE
  5
3F503
  8
OBJ
  6
CONTINUOUS
 62
     7
 10
45.112597834337379
 20
7.4595556898766322
 30
0.0
 11
45.112597834337379
 21
7.3537851972259816
 31
0.0
  0
LINE
  5
3F504
  8
OBJ
  6
CONTINUOUS
 62
     7
 10
44.984917739637659
 20
7.8002877769155283
 30
0.0
 11
44.984917739637659
 21
7.7318391581001729
 31
0.0
  0
POINT
  5
3F505
  8
OBJ
  6
BYBLOCK
 62
     0
 10
45.475995026944261
 20
7.7318391581001729
 30
0.0
  0
LINE
  5
3FC64
  8
0
 10
45.338263118631332
 20
6.2845599397157139
 30
0.0
 11
45.338263118631332
 21
4.6646261499979822
 31
0.0
  0
LINE
  5
3FC68
  8
0
 10
45.148480634675309
 20
6.0847774557596761
 30
0.0
 11
45.148480634675309
 21
4.6646261499979822
 31
0.0
  0
LINE
  5
3FC6D
  8
0
 10
44.958395949311708
 20
6.2845599397157139
 30
0.0
 11
44.958395949311708
 21
4.6646261499979822
 31
0.0
  0
LINE
  5
3FC6F
  8
0
 10
44.768915666763242
 20
6.0847774557596761
 30
0.0
 11
44.768915666763242
 21
4.6646261499979822
 31
0.0
  0
LINE
  5
3FC70
  8
0
 10
44.579133182807233
 20
6.2845599397157139
 30
0.0
 11
44.579133182807233
 21
4.6646261499979822
 31
0.0
  0
LINE
  5
3FC71
  8
0
 10
44.389350698851182
 20
6.0847774557596761
 30
0.0
 11
44.389350698851182
 21
4.6646261499979822
 31
0.0
  0
LINE
  5
3FC72
  8
0
 10
44.19956821489518
 20
6.2845599397157139
 30
0.0
 11
44.199568214895187
 21
4.6646261499979822
 31
0.0
  0
LINE
  5
3FC73
  8
0
 10
44.009785730939143
 20
6.0847774557596761
 30
0.0
 11
44.009785730939143
 21
4.6646261499979822
 31
0.0
  0
CIRCLE
  5
3FC7B
  8
OBJ
  6
CONTINUOUS
 10
45.338263118631332
 20
4.6243492316818831
 30
0.0
 40
0.0402769183160991
  0
LINE
  5
3FC7C
  8
OBJ
  6
CONTINUOUS
 10
45.309783036564731
 20
4.6528293137484873
 30
0.0
 11
45.366743200697947
 21
4.5958691496152637
 31
0.0
  0
CIRCLE
  5
3FC7D
  8
OBJ
  6
CONTINUOUS
 10
45.148480634675309
 20
4.6243492316818831
 30
0.0
 40
0.0402769183160991
  0
LINE
  5
3FC7E
  8
OBJ
  6
CONTINUOUS
 10
45.120000552608708
 20
4.6528293137484873
 30
0.0
 11
45.176960716741931
 21
4.5958691496152637
 31
0.0
  0
CIRCLE
  5
3FC7F
  8
OBJ
  6
CONTINUOUS
 10
44.958395949311708
 20
4.6243492316818831
 30
0.0
 40
0.0402769183160991
  0
LINE
  5
3FC80
  8
OBJ
  6
CONTINUOUS
 10
44.9299158672451
 20
4.6528293137484873
 30
0.0
 11
44.986876031378323
 21
4.5958691496152637
 31
0.0
  0
CIRCLE
  5
3FC81
  8
OBJ
  6
CONTINUOUS
 10
44.768915666763249
 20
4.6243492316818831
 30
0.0
 40
0.0402769183160991
  0
LINE
  5
3FC82
  8
OBJ
  6
CONTINUOUS
 10
44.740435584696662
 20
4.6528293137484873
 30
0.0
 11
44.797395748829857
 21
4.5958691496152637
 31
0.0
  0
CIRCLE
  5
3FC83
  8
OBJ
  6
CONTINUOUS
 10
44.579133182807233
 20
4.6243492316818831
 30
0.0
 40
0.0402769183160991
  0
LINE
  5
3FC84
  8
OBJ
  6
CONTINUOUS
 10
44.550653100740618
 20
4.6528293137484873
 30
0.0
 11
44.607613264873841
 21
4.5958691496152637
 31
0.0
  0
CIRCLE
  5
3FC85
  8
OBJ
  6
CONTINUOUS
 10
44.389350698851182
 20
4.6243492316818831
 30
0.0
 40
0.0402769183160991
  0
LINE
  5
3FC86
  8
OBJ
  6
CONTINUOUS
 10
44.360870616784588
 20
4.6528293137484873
 30
0.0
 11
44.417830780917797
 21
4.5958691496152637
 31
0.0
  0
CIRCLE
  5
3FC87
  8
OBJ
  6
CONTINUOUS
 10
44.19956821489518
 20
4.6243492316818831
 30
0.0
 40
0.0402769183160991
  0
LINE
  5
3FC88
  8
OBJ
  6
CONTINUOUS
 10
44.171088132828572
 20
4.6528293137484873
 30
0.0
 11
44.228048296961788
 21
4.5958691496152637
 31
0.0
  0
CIRCLE
  5
3FC89
  8
OBJ
  6
CONTINUOUS
 10
44.009785730939143
 20
4.6243492316818831
 30
0.0
 40
0.0402769183160991
  0
LINE
  5
3FC8A
  8
OBJ
  6
CONTINUOUS
 10
43.981305648872542
 20
4.6528293137484873
 30
0.0
 11
44.038265813005758
 21
4.5958691496152637
 31
0.0
  0
LINE
  5
3FC8B
  8
0
 10
45.148480634675309
 20
4.584072313365783
 30
0.0
 11
45.148480634675309
 21
3.6147628696050429
 31
0.0
  0
LINE
  5
3FC8C
  8
OBJ
  6
CONTINUOUS
 39
0.5282410363257157
 10
44.768178998059398
 20
4.6863411627774081
 30
0.0
 11
44.789263454421672
 21
4.7074256191396762
 31
0.0
  0
LINE
  5
3FC8D
  8
OBJ
  6
CONTINUOUS
 39
0.5282410363257157
 10
44.409698486509612
 20
4.7074256191396762
 30
0.0
 11
44.747963476289669
 21
4.7074256191396753
 31
0.0
  0
LINE
  5
3FC8E
  8
OBJ
  6
CONTINUOUS
 39
0.5282410363257157
 10
44.388614030147338
 20
4.6863411627774081
 30
0.0
 11
44.409698486509612
 21
4.7074256191396762
 31
0.0
  0
LINE
  5
3FC8F
  8
OBJ
  6
CONTINUOUS
 39
0.5282410363257157
 10
44.769047932651951
 20
4.6863411627774081
 30
0.0
 11
44.747963476289669
 21
4.7074256191396762
 31
0.0
  0
LINE
  5
3FC90
  8
OBJ
  6
CONTINUOUS
 39
0.5282410363257157
 10
44.389482964739877
 20
4.6863411627774081
 30
0.0
 11
44.368398508377609
 21
4.7074256191396762
 31
0.0
  0
LINE
  5
3FC91
  8
OBJ
  6
CONTINUOUS
 39
0.5282410363257157
 10
44.00904906223527
 20
4.6863411627774081
 30
0.0
 11
44.030133518597552
 21
4.7074256191396762
 31
0.0
  0
LINE
  5
3FC92
  8
OBJ
  6
CONTINUOUS
 39
0.5282410363257157
 10
44.030133518597552
 20
4.7074256191396762
 30
0.0
 11
44.368398508377609
 21
4.7074256191396753
 31
0.0
  0
LINE
  5
3FC93
  8
OBJ
  6
CONTINUOUS
 39
0.5282410363257157
 10
44.38861403014733
 20
4.6863411627774081
 30
0.0
 11
44.409698486509612
 21
4.7074256191396762
 31
0.0
  0
LINE
  5
3FC95
  8
OBJ
  6
CONTINUOUS
 10
43.920465724656772
 20
4.7472519441699781
 30
0.0
 11
45.415352799081909
 21
4.7472519441699781
 31
0.0
  0
LINE
  5
3FC96
  8
OBJ
  6
CONTINUOUS
 10
43.920465724656779
 20
4.5383783887053823
 30
0.0
 11
43.920465724656772
 21
4.7472519441699772
 31
0.0
  0
LINE
  5
3FC97
  8
0
 10
45.622587881539097
 20
3.786873535781893
 30
0.0
 11
45.622587881539097
 21
3.1220056069409159
 31
0.0
  0
ARC
  5
3FC9B
  8
0
 10
45.195926255664311
 20
3.6130198929020518
 30
0.0
 40
0.0474456209890022
 50
180.0
 51
0.0
  0
ARC
  5
3FC9C
  8
0
 10
45.290817497642323
 20
3.6130198929020518
 30
0.0
 40
0.0474456209890022
 50
180.0
 51
0.0
  0
ARC
  5
3FC9D
  8
0
 10
44.910950328322699
 20
3.480754004202514
 30
0.0
 40
0.0474456209890022
 50
180.0
 51
0.0
  0
ARC
  5
3FC9E
  8
0
 10
44.816059086344687
 20
3.480754004202514
 30
0.0
 40
0.0474456209890022
 50
180.0
 51
0.0
  0
CIRCLE
  5
3FCA0
  8
OBJ
  6
CONTINUOUS
 39
0.5282410363257157
 10
44.607099341802702
 20
3.3723475173339699
 30
0.0
 40
0.0093714308432137
  0
ARC
  5
3FCA1
  8
0
 10
44.436796319840212
 20
3.3502310922059721
 30
0.0
 40
0.0474456209890022
 50
180.0
 51
0.0
  0
ARC
  5
3FCA2
  8
0
 10
44.531687561818217
 20
3.3502310922059721
 30
0.0
 40
0.0474456209890022
 50
180.0
 51
0.0
  0
CIRCLE
  5
3FCA3
  8
OBJ
  6
CONTINUOUS
 39
0.5282410363257157
 10
44.227534373890649
 20
3.2400816286344352
 30
0.0
 40
0.0093714308432137
  0
ARC
  5
3FCA4
  8
0
 10
44.057231351928174
 20
3.2179652035064361
 30
0.0
 40
0.0474456209890022
 50
180.0
 51
0.0
  0
ARC
  5
3FCA5
  8
0
 10
44.152122593906171
 20
3.2179652035064361
 30
0.0
 40
0.0474456209890022
 50
180.0
 51
0.0
  0
LINE
  5
3FCAA
  8
0
 10
44.009785730939143
 20
4.584072313365783
 30
0.0
 11
44.009785730939143
 21
3.2179652035064361
 31
0.0
  0
LINE
  5
3FCAB
  8
0
 10
44.19956821489518
 20
4.584072313365783
 30
0.0
 11
44.199568214895187
 21
3.217965203506437
 31
0.0
  0
LINE
  5
3FCAC
  8
0
 10
44.389350698851182
 20
4.584072313365783
 30
0.0
 11
44.389350698851182
 21
3.3502310922059721
 31
0.0
  0
LINE
  5
3FCAD
  8
0
 10
44.579133182807233
 20
4.584072313365783
 30
0.0
 11
44.579133182807233
 21
3.3502310922059721
 31
0.0
  0
LINE
  5
3FCAE
  8
0
 10
44.768915666763242
 20
4.584072313365783
 30
0.0
 11
44.768915666763242
 21
3.4824969809055082
 31
0.0
  0
LINE
  5
3FCAF
  8
0
 10
44.958395949311708
 20
4.584072313365783
 30
0.0
 11
44.958395949311708
 21
3.480754004202514
 31
0.0
  0
LINE
  5
3FCB0
  8
0
 10
45.338263118631332
 20
4.584072313365783
 30
0.0
 11
45.338263118631332
 21
3.6147628696050429
 31
0.0
  0
LINE
  5
3FCB1
  8
OBJ
  6
CONTINUOUS
 10
45.338263118631332
 20
4.0766937222656772
 30
0.0
 11
45.338263118631332
 21
3.7207280937520348
 31
0.0
  0
LINE
  5
3FCB2
  8
0
 10
43.982257304738752
 20
4.5972238844358344
 30
0.0
 11
43.891703643295671
 21
4.4663701580752351
 31
0.0
  0
LINE
  5
3FCB4
  8
0
 10
43.729109414257657
 20
6.2360402309971956
 30
0.0
 11
43.729109414257657
 21
5.3764469801727293
 31
0.0
  0
LINE
  5
3FCB6
  8
OBJ
  6
CONTINUOUS
 10
43.516768505194783
 20
6.2584056347302051
 30
0.0
 11
43.588918565330069
 21
6.2942286638963942
 31
0.0
  0
LINE
  5
3FCC5
  8
OBJ
  6
CONTINUOUS
 10
43.156751553353509
 20
6.2584056347302051
 30
0.0
 11
43.228901613488787
 21
6.2942286638963942
 31
0.0
  0
LINE
  5
3FCC6
  8
OBJ
  6
CONTINUOUS
 10
43.333017432348747
 20
6.2584056347302051
 30
0.0
 11
43.405167492484033
 21
6.2942286638963942
 31
0.0
  0
LINE
  5
3FCCE
  8
OBJ
  6
CONTINUOUS
 10
42.591599432542729
 20
6.2584056347302051
 30
0.0
 11
42.663749492678022
 21
6.2942286638963942
 31
0.0
  0
LINE
  5
3FCCF
  8
OBJ
  6
CONTINUOUS
 10
42.415333553547491
 20
6.2584056347302051
 30
0.0
 11
42.48748361368277
 21
6.2942286638963942
 31
0.0
  0
LINE
  5
3FCD1
  8
OBJ
  6
CONTINUOUS
 10
42.968772821372738
 20
6.2584056347302051
 30
0.0
 11
43.040922881508031
 21
6.2942286638963942
 31
0.0
  0
LINE
  5
3FCD4
  8
OBJ
  6
CONTINUOUS
 10
42.764028073294348
 20
6.2584056347302051
 30
0.0
 11
42.836178133429641
 21
6.2942286638963942
 31
0.0
  0
ARC
  5
3FD28
  8
OBJ
  6
CONTINUOUS
 39
4.0822803423119884
 10
43.729109414257657
 20
5.241631567974923
 30
0.0
 40
0.0506935284327638
 50
270.0
 51
89.999999999999986
  0
ARC
  5
3FD29
  8
OBJ
  6
CONTINUOUS
 39
4.0822803423119884
 10
43.729109414257657
 20
5.3430186248404539
 30
0.0
 40
0.0506935284327638
 50
89.999999999999986
 51
270.0
  0
CIRCLE
  5
3FD2A
  8
OBJ
  6
CONTINUOUS
 39
4.0822803423119884
 10
43.729109414257657
 20
5.3937121532732188
 30
0.0
 40
0.0172651731004905
  0
CIRCLE
  5
3FD2B
  8
OBJ
  6
CONTINUOUS
 39
4.0822803423119884
 10
43.729109414257657
 20
5.190938039542158
 30
0.0
 40
0.0172651731004905
  0
LINE
  5
3FD45
  8
OBJ
  6
CONTINUOUS
 10
43.729109414257657
 20
5.7976866352849621
 30
0.0
 11
43.729109414257657
 21
5.3787121532732192
 31
0.0
  0
LINE
  5
3FD5A
  8
0
 10
43.729109414257657
 20
5.190938039542158
 30
0.0
 11
43.729109414257657
 21
3.4824969809055082
 31
0.0
  0
ARC
  5
3FD5D
  8
OBJ
  6
CONTINUOUS
 39
4.0822803423119884
 10
43.552843535262433
 20
5.241631567974923
 30
0.0
 40
0.0506935284327638
 50
270.0
 51
89.999999999999986
  0
ARC
  5
3FD5E
  8
OBJ
  6
CONTINUOUS
 39
4.0822803423119884
 10
43.552843535262433
 20
5.3430186248404539
 30
0.0
 40
0.0506935284327638
 50
89.999999999999986
 51
270.0
  0
CIRCLE
  5
3FD5F
  8
OBJ
  6
CONTINUOUS
 39
4.0822803423119884
 10
43.552843535262433
 20
5.3937121532732188
 30
0.0
 40
0.0172651731004905
  0
CIRCLE
  5
3FD60
  8
OBJ
  6
CONTINUOUS
 39
4.0822803423119884
 10
43.552843535262433
 20
5.190938039542158
 30
0.0
 40
0.0172651731004905
  0
LINE
  5
3FD62
  8
0
 10
43.552843535262433
 20
6.2360402309971956
 30
0.0
 11
43.552843535262433
 21
5.3764469801727293
 31
0.0
  0
LINE
  5
3FD63
  8
OBJ
  6
CONTINUOUS
 10
43.552843535262433
 20
5.7976866352849621
 30
0.0
 11
43.552843535262433
 21
5.5597536121042106
 31
0.0
  0
CIRCLE
  5
3FD6A
  8
OBJ
  6
CONTINUOUS
 39
4.0822803423119884
 10
43.369092462416383
 20
5.190938039542158
 30
0.0
 40
0.0172651731004905
  0
CIRCLE
  5
3FD6B
  8
OBJ
  6
CONTINUOUS
 39
4.0822803423119884
 10
43.369092462416383
 20
5.3937121532732188
 30
0.0
 40
0.0172651731004905
  0
ARC
  5
3FD6C
  8
OBJ
  6
CONTINUOUS
 39
4.0822803423119884
 10
43.369092462416383
 20
5.3430186248404539
 30
0.0
 40
0.0506935284327638
 50
89.999999999999986
 51
270.0
  0
ARC
  5
3FD6D
  8
OBJ
  6
CONTINUOUS
 39
4.0822803423119884
 10
43.369092462416383
 20
5.241631567974923
 30
0.0
 40
0.0506935284327638
 50
270.0
 51
89.999999999999986
  0
LINE
  5
3FD6E
  8
OBJ
  6
CONTINUOUS
 10
43.369092462416383
 20
5.7976866352849621
 30
0.0
 11
43.369092462416383
 21
5.5597536121042106
 31
0.0
  0
LINE
  5
3FD6F
  8
0
 10
43.369092462416383
 20
6.2360402309971956
 30
0.0
 11
43.369092462416383
 21
5.3764469801727293
 31
0.0
  0
LINE
  5
3FD89
  8
0
 10
43.552843535262433
 20
5.1856077848432047
 30
0.0
 11
43.552843535262433
 21
3.3502310922059721
 31
0.0
  0
LINE
  5
3FDA2
  8
0
 10
43.369092462416383
 20
5.190938039542158
 30
0.0
 11
43.369092462416383
 21
3.2179652035064361
 31
0.0
  0
LINE
  5
3FDA6
  8
OBJ
  6
CONTINUOUS
 10
43.729109414257657
 20
5.2059380395421586
 30
0.0
 11
43.729109414257657
 21
5.1562790690477502
 31
0.0
  0
LINE
  5
3FDAA
  8
0
 10
43.191856413752006
 20
6.2360402309971956
 30
0.0
 11
43.191856413752006
 21
3.6147628696050429
 31
0.0
  0
LINE
  5
3FDAD
  8
0
 10
42.450438413946003
 20
6.2360402309971956
 30
0.0
 11
42.450438413946003
 21
5.153675507817673
 31
0.0
  0
LINE
  5
3FDAE
  8
0
 10
42.63101068786068
 20
6.2360402309971956
 30
0.0
 11
42.631010687860687
 21
5.153675507817673
 31
0.0
  0
LINE
  5
3FDB0
  8
OBJ
  6
CONTINUOUS
 10
42.759922472391523
 20
5.153675507817673
 30
0.0
 11
42.745585075611167
 21
5.1150253561087249
 31
0.0
  0
LINE
  5
3FDB1
  8
OBJ
  6
CONTINUOUS
 10
42.800103103362012
 20
5.153675507817673
 30
0.0
 11
42.785765706581643
 21
5.1150253561087249
 31
0.0
  0
LINE
  5
3FDB2
  8
OBJ
  6
CONTINUOUS
 10
42.84028373433248
 20
5.153675507817673
 30
0.0
 11
42.759922472391523
 21
5.153675507817673
 31
0.0
  0
LINE
  5
3FDB3
  8
OBJ
  6
CONTINUOUS
 10
42.84028373433248
 20
5.153675507817673
 30
0.0
 11
42.825946337552118
 21
5.1150253561087249
 31
0.0
  0
LINE
  5
3FDB4
  8
0
 10
42.800103103361998
 20
6.2360402309971956
 30
0.0
 11
42.800103103362012
 21
5.153675507817673
 31
0.0
  0
TEXT
  5
3FDB5
  8
OBJ
  6
CONTINUOUS
 10
43.797203177624311
 20
4.8447118633755837
 30
0.0
 40
0.06087276
  1
CT'S
  7
SIMPLEX
  0
LINE
  5
3FDB8
  8
OBJ
  6
CONTINUOUS
 62
     7
 10
44.984917739637659
 20
2.556381269179961
 30
0.0
 11
44.75607572375278
 21
2.6311761175543622
 31
0.0
  0
LINE
  5
3FDB9
  8
OBJ
  6
CONTINUOUS
 62
     7
 10
44.946387060172057
 20
2.0592599537219032
 30
0.0
 11
45.112597834337379
 21
2.0592599537219032
 31
0.0
  0
LINE
  5
3FDBA
  8
OBJ
  6
HIDDEN
 62
     7
 10
45.127707904716047
 20
2.0675704924301659
 30
0.0
 11
44.931276989793382
 21
2.0675704924301659
 31
0.0
  0
LINE
  5
3FDBB
  8
OBJ
  6
CONTINUOUS
 62
     7
 10
42.945813742036862
 20
2.2156491821410791
 30
0.0
 11
45.112597834337379
 21
2.215649182141072
 31
0.0
  0
LINE
  5
3FDBC
  8
OBJ
  6
CONTINUOUS
 62
     7
 10
42.945813742036862
 20
2.1098786894904231
 30
0.0
 11
45.112597834337379
 21
2.1098786894904231
 31
0.0
  0
LINE
  5
3FDBD
  8
OBJ
  6
HIDDEN
 62
     7
 10
44.931276989793382
 20
1.8711395775075199
 30
0.0
 11
45.127707904716047
 21
1.8711395775075199
 31
0.0
  0
LINE
  5
3FDBE
  8
OBJ
  6
CONTINUOUS
 62
     7
 10
44.946387060172057
 20
1.8552740036099229
 30
0.0
 11
45.112597834337379
 21
1.8552740036099229
 31
0.0
  0
LINE
  5
3FDBF
  8
OBJ
  6
HIDDEN
 62
     7
 10
44.939134226390287
 20
1.797704635467217
 30
0.0
 11
44.967801075578812
 21
1.797704635467217
 31
0.0
  0
LINE
  5
3FDC0
  8
OBJ
  6
HIDDEN
 62
     7
 10
44.939134226390287
 20
1.717923463867866
 30
0.0
 11
44.967801075578812
 21
1.717923463867866
 31
0.0
  0
LINE
  5
3FDC1
  8
OBJ
  6
CONTINUOUS
 10
44.995939330121459
 20
1.1402366358693481
 30
0.0
 11
44.958395949311708
 21
1.161912316886146
 31
0.0
  0
LINE
  5
3FDC2
  8
OBJ
  6
CONTINUOUS
 10
45.006696506224429
 20
1.2901129892298071
 30
0.0
 11
44.913005550447608
 21
1.2901129892298071
 31
0.0
  0
LINE
  5
3FDC3
  8
OBJ
  6
CONTINUOUS
 10
44.913005550447608
 20
1.205485972267297
 30
0.0
 11
45.006696506224429
 21
1.205485972267297
 31
0.0
  0
CIRCLE
  5
3FDC4
  8
OBJ
  6
CONTINUOUS
 10
44.958395949311708
 20
1.1185609548525499
 30
0.0
 40
0.028168665929907
  0
TEXT
  5
3FDC5
  8
OBJ
  6
CONTINUOUS
 10
44.923135503744327
 20
1.225530734029102
 30
0.0
 40
0.05
  1
HI
  7
SIMPLEX
  0
LINE
  5
3FDC6
  8
OBJ
  6
CONTINUOUS
 62
     7
 10
44.984917739637659
 20
0.5210547891738431
 30
0.0
 11
44.75607572375278
 21
0.4462599407994477
 31
0.0
  0
CIRCLE
  5
3FDC7
  8
OBJ
  6
CONTINUOUS
 10
44.958395949311708
 20
-0.6195572760536763
 30
0.0
 40
0.0402769183160991
  0
LINE
  5
3FDC8
  8
OBJ
  6
CONTINUOUS
 10
44.9299158672451
 20
-0.5910771939870722
 30
0.0
 11
44.986876031378323
 21
-0.6480373581202948
 31
0.0
  0
LINE
  5
3FDC9
  8
OBJ
  6
CONTINUOUS
 39
0.5282410363257157
 10
44.789263454421672
 20
-0.5364808885958832
 30
0.0
 11
45.127528444201729
 21
-0.5364808885958841
 31
0.0
  0
LINE
  5
3FDCA
  8
OBJ
  6
CONTINUOUS
 10
44.958395949311708
 20
1.0752095928189509
 30
0.0
 11
44.995939330121459
 21
1.0968852738357491
 31
0.0
  0
CIRCLE
  5
3FDCB
  8
OBJ
  6
CONTINUOUS
 62
     7
 10
44.958395949311708
 20
1.1185609548525499
 30
0.0
 40
0.0779075228723947
  0
LINE
  5
3FDCC
  8
OBJ
  6
CONTINUOUS
 62
     7
 10
42.416205775264672
 20
0.7877475313572706
 30
0.0
 11
45.362669499104278
 21
0.7877475313572706
 31
0.0
  0
LINE
  5
3FDCD
  8
OBJ
  6
CONTINUOUS
 62
     7
 10
42.302880247424689
 20
0.5895034079891959
 30
0.0
 11
45.475995026944261
 21
0.5895034079891959
 31
0.0
  0
LINE
  5
3FDCF
  8
OBJ
  6
CONTINUOUS
 10
43.920465724656779
 20
-0.7055281190301788
 30
0.0
 11
45.415352799081909
 21
-0.705528119030177
 31
0.0
  0
LINE
  5
3FDD0
  8
OBJ
  6
CONTINUOUS
 10
43.920465724656772
 20
-0.4966545635655804
 30
0.0
 11
45.415352799081909
 21
-0.4966545635655813
 31
0.0
  0
LINE
  5
3FDD1
  8
OBJ
  6
CONTINUOUS
 62
     7
 10
45.362669499104278
 20
2.336529745170397
 30
0.0
 11
42.416205775264679
 21
2.336529745170397
 31
0.0
  0
LINE
  5
3FDD2
  8
OBJ
  6
CONTINUOUS
 62
     7
 10
42.302880247424689
 20
2.487932650364614
 30
0.0
 11
45.475995026944261
 21
2.487932650364614
 31
0.0
  0
TEXT
  5
3FDD4
  8
OBJ
  6
CONTINUOUS
 10
42.24792089021507
 20
-2.4191100675161281
 30
0.0
 40
0.0686306894350331
  1
4 WIRE WYE: 3 ELEMENT CONNECTION USING 3 PTs 4CTs
  7
SIMPLEX
  0
LINE
  5
3FDD5
  8
OBJ
  6
CONTINUOUS
 39
1.4579572651114241
 10
45.622587881539097
 20
-2.0259413042291219
 30
0.0
 11
42.811635388044508
 21
-2.0259413042291219
 31
0.0
  0
LINE
  5
3FDD6
  8
OBJ
  6
CONTINUOUS
 39
1.4579572651114241
 10
45.622587881539097
 20
-1.8936754155295861
 30
0.0
 11
42.811635388044508
 21
-1.8936754155295861
 31
0.0
  0
LINE
  5
3FDD7
  8
OBJ
  6
CONTINUOUS
 39
1.4579572651114241
 10
45.622587881539097
 20
-1.76140952683005
 30
0.0
 11
42.811635388044508
 21
-1.7614095268300509
 31
0.0
  0
LINE
  5
3FDD8
  8
OBJ
  6
CONTINUOUS
 39
1.4579572651114241
 10
45.622587881539097
 20
-1.6291436381305151
 30
0.0
 11
42.811635388044508
 21
-1.6291436381305151
 31
0.0
  0
LINE
  5
3FDD9
  8
OBJ
  6
CONTINUOUS
 39
1.4579572651114241
 10
42.296910308649117
 20
-2.4632786942621099
 30
0.0
 11
45.609016494752481
 21
-2.4632786942621099
 31
0.0
  0
LINE
  5
3FDDA
  8
OBJ
  6
CONTINUOUS
 62
     7
 10
42.302880247424689
 20
0.5895034079891959
 30
0.0
 11
42.302880247424689
 21
2.487932650364614
 31
0.0
  0
LINE
  5
3FDDB
  8
OBJ
  6
CONTINUOUS
 62
     7
 10
42.340655423371352
 20
0.8632978832505919
 30
0.0
 11
42.340655423371352
 21
2.2609793932770681
 31
0.0
  0
LINE
  5
3FDDC
  8
OBJ
  6
CONTINUOUS
 62
     7
 10
42.362634739354959
 20
0.8933979940940207
 30
0.0
 11
42.362634739354959
 21
1.171423289061444
 31
0.0
  0
LINE
  5
3FDDD
  8
OBJ
  6
CONTINUOUS
 62
     7
 10
42.718814362451717
 20
0.8933979940940207
 30
0.0
 11
42.718814362451717
 21
1.171423289061444
 31
0.0
  0
LINE
  5
3FDDE
  8
OBJ
  6
CONTINUOUS
 62
     7
 10
42.535414976110737
 20
0.8950059615940704
 30
0.0
 11
42.535414976110737
 21
1.173031256561494
 31
0.0
  0
LINE
  5
3FDDF
  8
OBJ
  6
CONTINUOUS
 62
     7
 10
43.092651526031389
 20
0.8933979940940207
 30
0.0
 11
43.092651526031389
 21
1.171423289061444
 31
0.0
  0
LINE
  5
3FDE0
  8
OBJ
  6
CONTINUOUS
 62
     7
 10
42.899127984788578
 20
0.8933979940940207
 30
0.0
 11
42.899127984788578
 21
1.171423289061444
 31
0.0
  0
LINE
  5
3FDE1
  8
OBJ
  6
CONTINUOUS
 62
     7
 10
43.463411070688139
 20
0.8933979940940207
 30
0.0
 11
43.463411070688139
 21
1.171423289061444
 31
0.0
  0
LINE
  5
3FDE2
  8
OBJ
  6
CONTINUOUS
 62
     7
 10
43.279660088343043
 20
0.8933979940940207
 30
0.0
 11
43.279660088343043
 21
1.171423289061444
 31
0.0
  0
CIRCLE
  5
3FDE3
  8
OBJ
  6
CONTINUOUS
 62
     7
 10
44.19956821489518
 20
1.1185609548525499
 30
0.0
 40
0.0779075228723947
  0
LINE
  5
3FDE4
  8
OBJ
  6
CONTINUOUS
 62
     7
 10
43.816913088848693
 20
0.8933979940940207
 30
0.0
 11
43.816913088848693
 21
1.171423289061444
 31
0.0
  0
LINE
  5
3FDE5
  8
OBJ
  6
CONTINUOUS
 62
     7
 10
43.640647209853441
 20
0.8933979940940207
 30
0.0
 11
43.640647209853441
 21
1.171423289061444
 31
0.0
  0
LINE
  5
3FDE6
  8
OBJ
  6
CONTINUOUS
 10
44.162024834085408
 20
1.0968852738357491
 30
0.0
 11
44.199568214895159
 21
1.0752095928189509
 31
0.0
  0
LINE
  5
3FDE7
  8
OBJ
  6
CONTINUOUS
 10
44.199568214895159
 20
1.0752095928189509
 30
0.0
 11
44.23711159570491
 21
1.0968852738357491
 31
0.0
  0
LINE
  5
3FDE8
  8
OBJ
  6
CONTINUOUS
 10
44.069872142747229
 20
1.0277915446141881
 30
0.0
 11
44.069872142747229
 21
1.088242448970838
 31
0.0
  0
TEXT
  5
3FDE9
  8
OBJ
  6
CONTINUOUS
 10
43.974223083964212
 20
1.035748250073063
 30
0.0
 40
0.05
  1
LO
  7
SIMPLEX
  0
LINE
  5
3FDEA
  8
OBJ
  6
CONTINUOUS
 10
43.95200507436455
 20
1.088242448970838
 30
0.0
 11
43.95200507436455
 21
1.0277915446141961
 31
0.0
  0
CIRCLE
  5
3FDEB
  8
OBJ
  6
CONTINUOUS
 62
     7
 10
44.579133182807233
 20
1.1185609548525499
 30
0.0
 40
0.0779075228723947
  0
LINE
  5
3FDEC
  8
OBJ
  6
CONTINUOUS
 10
44.579133182807233
 20
1.0752095928189509
 30
0.0
 11
44.61667656361697
 21
1.0968852738357491
 31
0.0
  0
LINE
  5
3FDED
  8
OBJ
  6
CONTINUOUS
 10
44.449437110659268
 20
1.0277915446141881
 30
0.0
 11
44.449437110659268
 21
1.088242448970838
 31
0.0
  0
TEXT
  5
3FDEE
  8
OBJ
  6
CONTINUOUS
 10
44.353788051876244
 20
1.035748250073063
 30
0.0
 40
0.05
  1
LO
  7
SIMPLEX
  0
LINE
  5
3FDEF
  8
OBJ
  6
CONTINUOUS
 10
44.331570042276581
 20
1.088242448970838
 30
0.0
 11
44.331570042276581
 21
1.0277915446141961
 31
0.0
  0
LINE
  5
3FDF0
  8
OBJ
  6
CONTINUOUS
 10
44.541589801997468
 20
1.0968852738357491
 30
0.0
 11
44.579133182807233
 21
1.0752095928189509
 31
0.0
  0
LINE
  5
3FDF1
  8
OBJ
  6
CONTINUOUS
 10
44.829002078571342
 20
1.0277915446141881
 30
0.0
 11
44.829002078571342
 21
1.088242448970838
 31
0.0
  0
LINE
  5
3FDF2
  8
OBJ
  6
CONTINUOUS
 10
44.92085256850195
 20
1.0968852738357491
 30
0.0
 11
44.958395949311708
 21
1.0752095928189509
 31
0.0
  0
LINE
  5
3FDF3
  8
OBJ
  6
CONTINUOUS
 10
44.711135010188649
 20
1.088242448970838
 30
0.0
 11
44.711135010188649
 21
1.0277915446141961
 31
0.0
  0
TEXT
  5
3FDF4
  8
OBJ
  6
CONTINUOUS
 10
44.733353019788296
 20
1.035748250073063
 30
0.0
 40
0.05
  1
LO
  7
SIMPLEX
  0
LINE
  5
3FDF5
  8
0
 10
44.19956821489518
 20
1.040653431980155
 30
0.0
 11
44.199568214895187
 21
-0.5792803577375773
 31
0.0
  0
LINE
  5
3FDF6
  8
0
 10
44.579133182807233
 20
1.040653431980155
 30
0.0
 11
44.579133182807233
 21
-0.5792803577375773
 31
0.0
  0
LINE
  5
3FDF7
  8
0
 10
44.958395949311708
 20
1.040653431980155
 30
0.0
 11
44.958395949311708
 21
-0.5792803577375773
 31
0.0
  0
LINE
  5
3FDF8
  8
OBJ
  6
CONTINUOUS
 39
1.4579572651114241
 10
42.450438413945989
 20
-0.0902309999178863
 30
0.0
 11
42.527297295207482
 21
-0.0902309999178863
 31
0.0
  0
CIRCLE
  5
3FDF9
  8
OBJ
  6
CONTINUOUS
 39
2.9159145302228491
 10
43.768831081084272
 20
-1.3269592459013599
 30
0.0
 40
0.0123322665003503
  0
ARC
  5
3FDFA
  8
OBJ
  6
CONTINUOUS
 39
2.9159145302228491
 10
43.69754874701183
 20
-1.3474126396403481
 30
0.0
 40
0.0321979117657228
 50
191.80213918366229
 51
348.1978608163376
  0
ARC
  5
3FDFB
  8
OBJ
  6
CONTINUOUS
 39
2.9159145302228491
 10
43.697592174297753
 20
-1.3474126396403481
 30
0.0
 40
0.0321979117657228
 50
191.80213918366229
 51
348.1978608163376
  0
ARC
  5
3FDFC
  8
OBJ
  6
CONTINUOUS
 39
2.9159145302228491
 10
43.640419117845738
 20
-1.3539981621998891
 30
0.0
 40
0.0256123892061805
 50
180.0
 51
0.0
  0
ARC
  5
3FDFD
  8
OBJ
  6
CONTINUOUS
 39
2.9159145302228491
 10
43.640462545131641
 20
-1.3539981621998891
 30
0.0
 40
0.0256123892061805
 50
180.0
 51
0.0000000000000127
  0
ARC
  5
3FDFE
  8
OBJ
  6
CONTINUOUS
 39
2.9159145302228491
 10
43.583846845593939
 20
-1.3486072410745451
 30
0.0
 40
0.0314685125497257
 50
189.86408680245029
 51
350.13591319755022
  0
ARC
  5
3FDFF
  8
OBJ
  6
CONTINUOUS
 39
2.9159145302228491
 10
43.583846845593953
 20
-1.470168125470344
 30
0.0
 40
0.0315706535486201
 50
10.878557415912351
 51
169.12144258409
  0
ARC
  5
3FE00
  8
OBJ
  6
CONTINUOUS
 39
2.9159145302228491
 10
43.583803418308037
 20
-1.470168125470344
 30
0.0
 40
0.0315706535486206
 50
10.878557415917101
 51
169.12144258408529
  0
ARC
  5
3FE01
  8
OBJ
  6
CONTINUOUS
 39
2.9159145302228491
 10
43.640419117845738
 20
-1.4642098611279011
 30
0.0
 40
0.0256123892061805
 50
0.0000000000057886
 51
179.9999999999942
  0
ARC
  5
3FE02
  8
OBJ
  6
CONTINUOUS
 39
2.9159145302228491
 10
43.69754874701183
 20
-1.470795383687443
 30
0.0
 40
0.0321979117657228
 50
11.80213918366232
 51
168.1978608163376
  0
ARC
  5
3FE03
  8
OBJ
  6
CONTINUOUS
 39
2.9159145302228491
 10
43.697592174297753
 20
-1.4707953836874439
 30
0.0
 40
0.0321979117657235
 50
11.80213918366851
 51
168.1978608163314
  0
ARC
  5
3FE04
  8
OBJ
  6
CONTINUOUS
 39
2.9159145302228491
 10
43.640462545131641
 20
-1.4642098611279011
 30
0.0
 40
0.0256123892061805
 50
0.0000000000058013
 51
179.9999999999942
  0
ARC
  5
3FE05
  8
OBJ
  6
CONTINUOUS
 39
4.0822803423119884
 10
43.369092462416383
 20
-0.0022749397606354
 30
0.0
 40
0.0506935284327638
 50
270.0
 51
89.999999999999986
  0
ARC
  5
3FE06
  8
OBJ
  6
CONTINUOUS
 39
4.0822803423119884
 10
43.369092462416383
 20
0.0991121171048954
 30
0.0
 40
0.0506935284327638
 50
89.999999999999986
 51
270.0
  0
CIRCLE
  5
3FE07
  8
OBJ
  6
CONTINUOUS
 39
4.0822803423119884
 10
43.369092462416383
 20
0.1498056455376604
 30
0.0
 40
0.0172651731004905
  0
CIRCLE
  5
3FE08
  8
OBJ
  6
CONTINUOUS
 39
4.0822803423119884
 10
43.369092462416383
 20
-0.0529684681934004
 30
0.0
 40
0.0172651731004905
  0
CIRCLE
  5
3FE09
  8
OBJ
  6
CONTINUOUS
 39
4.0822803423119884
 10
43.552843535262433
 20
-0.0529684681934004
 30
0.0
 40
0.0172651731004905
  0
CIRCLE
  5
3FE0A
  8
OBJ
  6
CONTINUOUS
 39
4.0822803423119884
 10
43.552843535262433
 20
0.1498056455376604
 30
0.0
 40
0.0172651731004905
  0
ARC
  5
3FE0B
  8
OBJ
  6
CONTINUOUS
 39
4.0822803423119884
 10
43.552843535262433
 20
0.0991121171048954
 30
0.0
 40
0.0506935284327638
 50
89.999999999999986
 51
270.0
  0
ARC
  5
3FE0C
  8
OBJ
  6
CONTINUOUS
 39
4.0822803423119884
 10
43.552843535262433
 20
-0.0022749397606354
 30
0.0
 40
0.0506935284327638
 50
270.0
 51
89.999999999999986
  0
CIRCLE
  5
3FE0D
  8
OBJ
  6
CONTINUOUS
 39
2.9159145302228491
 10
43.461159856571079
 20
-1.3269592459013591
 30
0.0
 40
0.0123322665003503
  0
ARC
  5
3FE0E
  8
OBJ
  6
CONTINUOUS
 39
2.9159145302228491
 10
43.389877522498651
 20
-1.347412639640347
 30
0.0
 40
0.0321979117657228
 50
191.80213918366229
 51
348.1978608163376
  0
ARC
  5
3FE0F
  8
OBJ
  6
CONTINUOUS
 39
2.9159145302228491
 10
43.389920949784567
 20
-1.347412639640347
 30
0.0
 40
0.0321979117657228
 50
191.80213918366229
 51
348.1978608163376
  0
ARC
  5
3FE10
  8
OBJ
  6
CONTINUOUS
 39
2.9159145302228491
 10
43.332747893332552
 20
-1.353998162199888
 30
0.0
 40
0.0256123892061805
 50
180.0
 51
0.0
  0
ARC
  5
3FE11
  8
OBJ
  6
CONTINUOUS
 39
2.9159145302228491
 10
43.332791320618462
 20
-1.353998162199888
 30
0.0
 40
0.0256123892061805
 50
180.0
 51
0.0000000000000127
  0
ARC
  5
3FE12
  8
OBJ
  6
CONTINUOUS
 39
2.9159145302228491
 10
43.27617562108076
 20
-1.348607241074544
 30
0.0
 40
0.0314685125497257
 50
189.86408680245029
 51
350.13591319755022
  0
ARC
  5
3FE13
  8
OBJ
  6
CONTINUOUS
 39
2.9159145302228491
 10
43.27617562108076
 20
-1.4701681254703429
 30
0.0
 40
0.0315706535486201
 50
10.878557415912351
 51
169.12144258409
  0
ARC
  5
3FE14
  8
OBJ
  6
CONTINUOUS
 39
2.9159145302228491
 10
43.276132193794851
 20
-1.4701681254703429
 30
0.0
 40
0.0315706535486206
 50
10.878557415917101
 51
169.12144258408529
  0
ARC
  5
3FE15
  8
OBJ
  6
CONTINUOUS
 39
2.9159145302228491
 10
43.332747893332552
 20
-1.4642098611279
 30
0.0
 40
0.0256123892061805
 50
0.0000000000057886
 51
179.9999999999942
  0
ARC
  5
3FE16
  8
OBJ
  6
CONTINUOUS
 39
2.9159145302228491
 10
43.389877522498651
 20
-1.4707953836874419
 30
0.0
 40
0.0321979117657228
 50
11.80213918366232
 51
168.1978608163376
  0
ARC
  5
3FE17
  8
OBJ
  6
CONTINUOUS
 39
2.9159145302228491
 10
43.389920949784567
 20
-1.470795383687443
 30
0.0
 40
0.0321979117657235
 50
11.80213918366851
 51
168.1978608163314
  0
ARC
  5
3FE18
  8
OBJ
  6
CONTINUOUS
 39
2.9159145302228491
 10
43.332791320618462
 20
-1.4642098611279
 30
0.0
 40
0.0256123892061805
 50
0.0000000000058013
 51
179.9999999999942
  0
LINE
  5
3FE19
  8
OBJ
  6
CONTINUOUS
 39
1.4579572651114241
 10
43.857681801075643
 20
-2.0936682799877961
 30
0.0
 11
43.857681801075643
 21
-0.8597508444894694
 31
0.0
  0
ARC
  5
3FE1A
  8
OBJ
  6
CONTINUOUS
 39
2.9159145302228491
 10
43.022012668662903
 20
-1.4642098611279
 30
0.0
 40
0.0256123892061805
 50
0.0000000000058013
 51
179.9999999999942
  0
ARC
  5
3FE1B
  8
OBJ
  6
CONTINUOUS
 39
2.9159145302228491
 10
43.079142297829009
 20
-1.470795383687443
 30
0.0
 40
0.0321979117657235
 50
11.80213918366851
 51
168.1978608163314
  0
ARC
  5
3FE1C
  8
OBJ
  6
CONTINUOUS
 39
2.9159145302228491
 10
43.079098870543092
 20
-1.4707953836874419
 30
0.0
 40
0.0321979117657228
 50
11.80213918366232
 51
168.1978608163376
  0
ARC
  5
3FE1D
  8
OBJ
  6
CONTINUOUS
 39
2.9159145302228491
 10
43.021969241376993
 20
-1.4642098611279
 30
0.0
 40
0.0256123892061805
 50
0.0000000000057886
 51
179.9999999999942
  0
ARC
  5
3FE1E
  8
OBJ
  6
CONTINUOUS
 39
2.9159145302228491
 10
42.965353541839292
 20
-1.4701681254703429
 30
0.0
 40
0.0315706535486206
 50
10.878557415917101
 51
169.12144258408529
  0
ARC
  5
3FE1F
  8
OBJ
  6
CONTINUOUS
 39
2.9159145302228491
 10
42.965396969125202
 20
-1.4701681254703429
 30
0.0
 40
0.0315706535486201
 50
10.878557415912351
 51
169.12144258409
  0
ARC
  5
3FE20
  8
OBJ
  6
CONTINUOUS
 39
2.9159145302228491
 10
42.965396969125202
 20
-1.348607241074544
 30
0.0
 40
0.0314685125497257
 50
189.86408680245029
 51
350.13591319755022
  0
ARC
  5
3FE21
  8
OBJ
  6
CONTINUOUS
 39
2.9159145302228491
 10
43.022012668662903
 20
-1.353998162199888
 30
0.0
 40
0.0256123892061805
 50
180.0
 51
0.0000000000000127
  0
ARC
  5
3FE22
  8
OBJ
  6
CONTINUOUS
 39
2.9159145302228491
 10
43.021969241376993
 20
-1.353998162199888
 30
0.0
 40
0.0256123892061805
 50
180.0
 51
0.0
  0
ARC
  5
3FE23
  8
OBJ
  6
CONTINUOUS
 39
2.9159145302228491
 10
43.079142297829009
 20
-1.347412639640347
 30
0.0
 40
0.0321979117657228
 50
191.80213918366229
 51
348.1978608163376
  0
ARC
  5
3FE24
  8
OBJ
  6
CONTINUOUS
 39
2.9159145302228491
 10
43.079098870543092
 20
-1.347412639640347
 30
0.0
 40
0.0321979117657228
 50
191.80213918366229
 51
348.1978608163376
  0
CIRCLE
  5
3FE25
  8
OBJ
  6
CONTINUOUS
 39
2.9159145302228491
 10
43.150381204615528
 20
-1.3269592459013591
 30
0.0
 40
0.0123322665003503
  0
ARC
  5
3FE26
  8
OBJ
  6
CONTINUOUS
 39
4.0822803423119884
 10
43.729109414257657
 20
-0.0022749397606354
 30
0.0
 40
0.0506935284327638
 50
270.0
 51
89.999999999999986
  0
ARC
  5
3FE27
  8
OBJ
  6
CONTINUOUS
 39
4.0822803423119884
 10
43.729109414257657
 20
0.0991121171048954
 30
0.0
 40
0.0506935284327638
 50
89.999999999999986
 51
270.0
  0
CIRCLE
  5
3FE28
  8
OBJ
  6
CONTINUOUS
 39
4.0822803423119884
 10
43.729109414257657
 20
0.1498056455376604
 30
0.0
 40
0.0172651731004905
  0
CIRCLE
  5
3FE29
  8
OBJ
  6
CONTINUOUS
 39
4.0822803423119884
 10
43.729109414257657
 20
-0.0529684681934004
 30
0.0
 40
0.0172651731004905
  0
LINE
  5
3FE2A
  8
OBJ
  6
CONTINUOUS
 39
1.4579572651114241
 10
42.631010687860687
 20
-0.0902309999178854
 30
0.0
 11
42.450438413945989
 21
-0.0902309999178863
 31
0.0
  0
LINE
  5
3FE2B
  8
OBJ
  6
CONTINUOUS
 39
1.4579572651114241
 10
42.540724550903327
 20
-0.0902309999178854
 30
0.0
 11
42.540724550903327
 21
-0.1670942324730973
 31
0.0
  0
LINE
  5
3FE2E
  8
OBJ
  6
CONTINUOUS
 39
0.5282410363257157
 10
44.768178998059398
 20
-0.5575653449581504
 30
0.0
 11
44.789263454421672
 21
-0.5364808885958832
 31
0.0
  0
LINE
  5
3FE2F
  8
OBJ
  6
CONTINUOUS
 39
0.5282410363257157
 10
44.409698486509612
 20
-0.5364808885958832
 30
0.0
 11
44.747963476289669
 21
-0.5364808885958841
 31
0.0
  0
LINE
  5
3FE30
  8
OBJ
  6
CONTINUOUS
 39
0.5282410363257157
 10
44.388614030147338
 20
-0.5575653449581504
 30
0.0
 11
44.409698486509612
 21
-0.5364808885958832
 31
0.0
  0
LINE
  5
3FE31
  8
OBJ
  6
CONTINUOUS
 39
0.5282410363257157
 10
44.769047932651951
 20
-0.5575653449581504
 30
0.0
 11
44.747963476289669
 21
-0.5364808885958832
 31
0.0
  0
LINE
  5
3FE32
  8
OBJ
  6
CONTINUOUS
 39
0.5282410363257157
 10
44.389482964739877
 20
-0.5575653449581504
 30
0.0
 11
44.368398508377609
 21
-0.5364808885958832
 31
0.0
  0
LINE
  5
3FE33
  8
OBJ
  6
CONTINUOUS
 39
0.5282410363257157
 10
44.00904906223527
 20
-0.5575653449581504
 30
0.0
 11
44.030133518597552
 21
-0.5364808885958832
 31
0.0
  0
LINE
  5
3FE34
  8
OBJ
  6
CONTINUOUS
 39
0.5282410363257157
 10
44.030133518597552
 20
-0.5364808885958832
 30
0.0
 11
44.368398508377609
 21
-0.5364808885958841
 31
0.0
  0
LINE
  5
3FE35
  8
OBJ
  6
CONTINUOUS
 39
0.5282410363257157
 10
44.38861403014733
 20
-0.5575653449581504
 30
0.0
 11
44.409698486509612
 21
-0.5364808885958832
 31
0.0
  0
CIRCLE
  5
3FE36
  8
OBJ
  6
CONTINUOUS
 39
0.5282410363257157
 10
44.607099341802702
 20
-1.8715589904015879
 30
0.0
 40
0.0093714308432137
  0
CIRCLE
  5
3FE37
  8
OBJ
  6
CONTINUOUS
 39
0.5282410363257157
 10
44.227534373890649
 20
-2.0038248791011242
 30
0.0
 40
0.0093714308432137
  0
LINE
  5
3FE38
  8
OBJ
  6
CONTINUOUS
 10
43.889914586242597
 20
-0.7767760659431416
 30
0.0
 11
43.877615361224557
 21
-0.8099317998697461
 31
0.0
  0
LINE
  5
3FE39
  8
OBJ
  6
CONTINUOUS
 10
43.924383229975042
 20
-0.7767760659431416
 30
0.0
 11
43.912084004957002
 21
-0.8099317998697461
 31
0.0
  0
LINE
  5
3FE3A
  8
OBJ
  6
CONTINUOUS
 10
43.855445942510151
 20
-0.7767760659431416
 30
0.0
 11
43.843146717492139
 21
-0.8099317998697461
 31
0.0
  0
LINE
  5
3FE3B
  8
0
 10
43.552843535262433
 20
-0.0582987228923537
 30
0.0
 11
43.552843535262433
 21
-0.8340100217591643
 31
0.0
  0
LINE
  5
3FE3C
  8
0
 10
43.110659537788933
 20
-0.7119726109114115
 30
0.0
 11
43.110659537788919
 21
-1.353998162199888
 31
0.0
  0
LINE
  5
3FE3D
  8
0
 10
43.729109414257657
 20
-0.0529684681934004
 30
0.0
 11
43.729109414257657
 21
-1.3539981621998891
 31
0.0
  0
LINE
  5
3FE3E
  8
0
 10
42.81063684450276
 20
-0.5899352000636587
 30
0.0
 11
42.81063684450276
 21
-1.1329399813715919
 31
0.0
  0
LINE
  5
3FE3F
  8
0
 10
44.009785730939143
 20
-0.6598341943697755
 30
0.0
 11
44.009785730939143
 21
-2.0259413042291219
 31
0.0
  0
LINE
  5
3FE40
  8
0
 10
44.19956821489518
 20
-0.6598341943697755
 30
0.0
 11
44.199568214895187
 21
-2.025941304229121
 31
0.0
  0
LINE
  5
3FE41
  8
0
 10
44.389350698851182
 20
-0.6598341943697755
 30
0.0
 11
44.389350698851182
 21
-1.8936754155295861
 31
0.0
  0
LINE
  5
3FE42
  8
0
 10
44.579133182807233
 20
-0.6598341943697755
 30
0.0
 11
44.579133182807233
 21
-1.8936754155295861
 31
0.0
  0
LINE
  5
3FE43
  8
0
 10
44.958395949311708
 20
-0.6598341943697755
 30
0.0
 11
44.958395949311708
 21
-1.763152503533044
 31
0.0
  0
LINE
  5
3FE44
  8
0
 10
44.768915666763242
 20
-0.6598341943697755
 30
0.0
 11
44.768915666763242
 21
-1.7614095268300509
 31
0.0
  0
TEXT
  5
3FE45
  8
OBJ
  6
CONTINUOUS
 10
42.635914335247293
 20
-1.5909284881531109
 30
0.0
 40
0.0661329443497673
  1
LOAD
  0
TEXT
  5
3FE46
  8
0
 10
42.75419087085529
 20
-1.731877324671359
 30
0.0
 40
0.06
  1
C
  0
LINE
  5
3FE48
  8
OBJ
  6
CONTINUOUS
 10
43.729109414257657
 20
-1.4642098611279011
 30
0.0
 11
43.729109414257657
 21
-1.7614095268300509
 31
0.0
  0
LINE
  5
3FE49
  8
0
 10
43.72910941425765
 20
-1.4642098611278991
 30
0.0
 11
43.729109414257657
 21
-1.7614095268300509
 31
0.0
  0
LINE
  5
3FE4A
  8
0
 10
43.421438189744471
 20
-1.464209861127898
 30
0.0
 11
43.421438189744478
 21
-1.8936754155295861
 31
0.0
  0
LINE
  5
3FE4B
  8
OBJ
  6
CONTINUOUS
 10
43.421438189744478
 20
-1.4642098611279
 30
0.0
 11
43.421438189744478
 21
-1.8936754155295861
 31
0.0
  0
LINE
  5
3FE4C
  8
0
 10
43.110659537788912
 20
-1.464209861127898
 30
0.0
 11
43.110659537788919
 21
-2.0259413042291219
 31
0.0
  0
LINE
  5
3FE4D
  8
OBJ
  6
CONTINUOUS
 10
43.110659537788919
 20
-1.4642098611279
 30
0.0
 11
43.110659537788919
 21
-2.0259413042291219
 31
0.0
  0
TEXT
  5
3FE51
  8
0
 10
42.75419087085529
 20
-1.8641432133708951
 30
0.0
 40
0.06
  1
B
  0
TEXT
  5
3FE52
  8
0
 10
42.75419087085529
 20
-1.9964091020704311
 30
0.0
 40
0.06
  1
A
  0
TEXT
  5
3FE54
  8
OBJ
  6
CONTINUOUS
 10
43.793228790049362
 20
-2.278277160347181
 30
0.0
 40
0.0444391
  1
GROUND
  7
SIMPLEX
  0
ARC
  5
3FE55
  8
0
 10
44.057231351928174
 20
-2.0259413042291219
 30
0.0
 40
0.0474456209890022
 50
180.0
 51
0.0
  0
TEXT
  5
3FE56
  8
OBJ
  6
CONTINUOUS
 10
43.630835896826383
 20
-2.1924923540659029
 30
0.0
 40
0.0444391
  1
SWITCHGEAR CHASSIS
  7
SIMPLEX
  0
ARC
  5
3FE58
  8
0
 10
44.816059086344687
 20
-1.763152503533044
 30
0.0
 40
0.0474456209890022
 50
180.0
 51
0.0
  0
ARC
  5
3FE59
  8
0
 10
44.910950328322699
 20
-1.763152503533044
 30
0.0
 40
0.0474456209890022
 50
180.0
 51
0.0
  0
ARC
  5
3FE5A
  8
0
 10
44.436796319840212
 20
-1.8936754155295861
 30
0.0
 40
0.0474456209890022
 50
180.0
 51
0.0
  0
ARC
  5
3FE5B
  8
0
 10
44.531687561818217
 20
-1.8936754155295861
 30
0.0
 40
0.0474456209890022
 50
180.0
 51
0.0
  0
ARC
  5
3FE5C
  8
0
 10
44.152122593906171
 20
-2.0259413042291219
 30
0.0
 40
0.0474456209890022
 50
180.0
 51
0.0
  0
LINE
  5
3FE5D
  8
0
 10
43.552843535262433
 20
-0.9465564292494779
 30
0.0
 11
42.795636844502759
 21
-0.9465564292494779
 31
0.0
  0
LINE
  5
3FE5E
  8
0
 10
42.934393658793667
 20
-0.9315564292494774
 30
0.0
 11
42.934393658793667
 21
-1.353998162199888
 31
0.0
  0
TEXT
  5
3FE60
  8
0
 10
42.75419087085529
 20
-1.5996114359718241
 30
0.0
 40
0.06
  1
N
  0
LINE
  5
3FE62
  8
0
 10
42.934393658793667
 20
-1.464209861127947
 30
0.0
 11
42.934393658793667
 21
-1.6291436381305151
 31
0.0
  0
TEXT
  5
3FE63
  8
OBJ
  6
CONTINUOUS
 10
42.716941787022932
 20
-1.432522544738462
 30
0.0
 40
0.06087276
  1
PT'S
  7
SIMPLEX
  0
LINE
  5
3FE65
  8
OBJ
  6
CONTINUOUS
 10
42.850817475473228
 20
-1.1329399813715919
 30
0.0
 11
42.836480078692873
 21
-1.1715901330805401
 31
0.0
  0
LINE
  5
3FE66
  8
OBJ
  6
CONTINUOUS
 10
42.850817475473228
 20
-1.1329399813715919
 30
0.0
 11
42.770456213532263
 21
-1.1329399813715919
 31
0.0
  0
LINE
  5
3FE67
  8
OBJ
  6
CONTINUOUS
 10
42.810636844502753
 20
-1.1329399813715919
 30
0.0
 11
42.79629944772239
 21
-1.1715901330805401
 31
0.0
  0
LINE
  5
3FE68
  8
OBJ
  6
CONTINUOUS
 10
42.770456213532263
 20
-1.1329399813715919
 30
0.0
 11
42.756118816751922
 21
-1.1715901330805401
 31
0.0
  0
LINE
  5
3FE6A
  8
0
 10
43.552843535262433
 20
-0.9465564292494779
 30
0.0
 11
43.552843535262433
 21
-1.3539981621998891
 31
0.0
  0
LINE
  5
3FE6B
  8
0
 10
43.421438189744478
 20
-0.8340100217591643
 30
0.0
 11
43.421438189744478
 21
-1.353998162199888
 31
0.0
  0
LINE
  5
3FE6C
  8
0
 10
43.245172310749233
 20
-0.9315564292494774
 30
0.0
 11
43.245172310749233
 21
-1.353998162199888
 31
0.0
  0
LINE
  5
3FE6D
  8
0
 10
43.552843535262433
 20
-1.464209861127947
 30
0.0
 11
43.552843535262419
 21
-1.629143638130516
 31
0.0
  0
LINE
  5
3FE6F
  8
0
 10
43.245172310749233
 20
-1.464209861127947
 30
0.0
 11
43.245172310749233
 21
-1.6291436381305151
 31
0.0
  0
SOLID
  5
3FE71
  8
OBJ
  6
BYBLOCK
 62
     0
 10
43.868633506836559
 20
-0.9139182483393648
 30
0.0
 11
43.84673009531474
 21
-0.9139182483393648
 31
0.0
 12
43.857681801075643
 22
-0.8482080137739069
 32
0.0
 13
43.857681801075643
 23
-0.8482080137739069
 33
0.0
  0
LINE
  5
3FE73
  8
0
 10
43.552843535262433
 20
-0.8340100217591643
 30
0.0
 11
43.421438189744492
 21
-0.8340100217591643
 31
0.0
  0
LINE
  5
3FE74
  8
0
 10
44.009785730939143
 20
0.8408709480241169
 30
0.0
 11
44.009785730939143
 21
-0.5792803577375773
 31
0.0
  0
LINE
  5
3FE75
  8
0
 10
44.389350698851182
 20
0.8408709480241169
 30
0.0
 11
44.389350698851182
 21
-0.5792803577375773
 31
0.0
  0
LINE
  5
3FE76
  8
0
 10
44.768915666763242
 20
0.8408709480241169
 30
0.0
 11
44.768915666763242
 21
-0.5792803577375773
 31
0.0
  0
LINE
  5
3FE77
  8
0
 10
43.369092462416383
 20
0.9921337232616371
 30
0.0
 11
43.369092462416383
 21
0.1325404724371699
 31
0.0
  0
LINE
  5
3FE78
  8
0
 10
43.552843535262433
 20
0.9921337232616371
 30
0.0
 11
43.552843535262433
 21
0.1325404724371699
 31
0.0
  0
LINE
  5
3FE7B
  8
0
 10
43.729109414257657
 20
0.9921337232616371
 30
0.0
 11
43.729109414257657
 21
0.1325404724371699
 31
0.0
  0
LINE
  5
3FE7D
  8
OBJ
  6
CONTINUOUS
 10
43.729109414257657
 20
0.5537801275494036
 30
0.0
 11
43.729109414257657
 21
0.1348056455376598
 31
0.0
  0
LINE
  5
3FE7E
  8
0
 10
43.191856413752006
 20
0.9921337232616371
 30
0.0
 11
43.191856413752006
 21
-0.5899352000636579
 31
0.0
  0
LINE
  5
3FE7F
  8
0
 10
42.63101068786068
 20
0.9921337232616371
 30
0.0
 11
42.631010687860687
 21
-0.0902309999178854
 31
0.0
  0
LINE
  5
3FE80
  8
0
 10
42.450438413946003
 20
0.9921337232616371
 30
0.0
 11
42.450438413946003
 21
-0.0902309999178863
 31
0.0
  0
LINE
  5
3FE81
  8
0
 10
42.800103103361998
 20
0.9921337232616371
 30
0.0
 11
42.800103103362012
 21
-0.0902309999178854
 31
0.0
  0
TEXT
  5
3FE82
  8
OBJ
  6
CONTINUOUS
 10
43.888239002263369
 20
0.3396979227423928
 30
0.0
 40
0.0438068230436382
  1
FUSES
  0
LINE
  5
3FE83
  8
0
 10
43.369092462416383
 20
-0.7119726109114115
 30
0.0
 11
43.110659537788933
 21
-0.7119726109114115
 31
0.0
  0
TEXT
  5
3FE84
  8
OBJ
  6
CONTINUOUS
 10
42.247438248573047
 20
-0.3549911800656282
 30
0.0
 40
0.0462023
  1
(DEPENDENT ON EQUIPPED 
  7
SIMPLEX
  0
TEXT
  5
3FE85
  8
OBJ
  6
CONTINUOUS
 10
42.25902769916749
 20
-0.4424747124442945
 30
0.0
 40
0.04
  1
POWER SUPPLY OPTION)
  7
SIMPLEX
  0
LINE
  5
3FE86
  8
0
 10
43.191856413752006
 20
-0.5899352000636579
 30
0.0
 11
42.810636844502767
 21
-0.5899352000636579
 31
0.0
  0
TEXT
  5
3FE87
  8
OBJ
  6
CONTINUOUS
 10
42.255842111026773
 20
-0.2666554308387115
 30
0.0
 40
0.0462023
  1
SUPPLY POWER
  7
SIMPLEX
  0
POINT
  5
3FE88
  8
OBJ
  6
BYBLOCK
 62
     0
 10
42.451470047245309
 20
-0.3231248303957743
 30
0.0
  0
LINE
  5
3FE89
  8
OBJ
  6
CONTINUOUS
 10
42.84028373433248
 20
-0.0902309999178854
 30
0.0
 11
42.825946337552118
 21
-0.1288811516268336
 31
0.0
  0
LINE
  5
3FE8A
  8
OBJ
  6
CONTINUOUS
 10
42.84028373433248
 20
-0.0902309999178854
 30
0.0
 11
42.759922472391523
 21
-0.0902309999178854
 31
0.0
  0
LINE
  5
3FE8B
  8
OBJ
  6
CONTINUOUS
 10
42.800103103362012
 20
-0.0902309999178854
 30
0.0
 11
42.785765706581643
 21
-0.1288811516268336
 31
0.0
  0
LINE
  5
3FE8C
  8
OBJ
  6
CONTINUOUS
 10
42.759922472391523
 20
-0.0902309999178854
 30
0.0
 11
42.745585075611167
 21
-0.1288811516268336
 31
0.0
  0
POINT
  5
3FE8D
  8
OBJ
  6
BYBLOCK
 62
     0
 10
42.450438413945989
 20
-0.0902309999178863
 30
0.0
  0
SOLID
  5
3FE8E
  8
OBJ
  6
BYBLOCK
 62
     0
 10
42.551676256664237
 20
-0.1129268286232019
 30
0.0
 11
42.529772845142432
 21
-0.1129268286232019
 31
0.0
 12
42.540724550903327
 22
-0.1786370631886598
 32
0.0
 13
42.540724550903327
 23
-0.1786370631886598
 33
0.0
  0
TEXT
  5
3FE8F
  8
OBJ
  6
CONTINUOUS
 10
43.797203177624311
 20
-0.3991946443599747
 30
0.0
 40
0.06087276
  1
CT'S
  7
SIMPLEX
  0
LINE
  5
3FE90
  8
0
 10
43.369092462416383
 20
-0.0529684681934004
 30
0.0
 11
43.369092462416383
 21
-0.7119726109114115
 31
0.0
  0
CIRCLE
  5
3FE91
  8
OBJ
  6
CONTINUOUS
 10
44.009785730939143
 20
-0.6195572760536763
 30
0.0
 40
0.0402769183160991
  0
LINE
  5
3FE92
  8
OBJ
  6
CONTINUOUS
 10
43.981305648872542
 20
-0.5910771939870722
 30
0.0
 11
44.038265813005758
 21
-0.6480373581202948
 31
0.0
  0
LINE
  5
3FE93
  8
OBJ
  6
CONTINUOUS
 10
43.920465724656779
 20
-0.705528119030177
 30
0.0
 11
43.920465724656772
 21
-0.4966545635655822
 31
0.0
  0
LINE
  5
3FE94
  8
OBJ
  6
CONTINUOUS
 10
43.924383229975042
 20
-0.7767760659431416
 30
0.0
 11
43.855445942510151
 21
-0.7767760659431416
 31
0.0
  0
LINE
  5
3FE95
  8
0
 10
43.982257304738752
 20
-0.646682623299725
 30
0.0
 11
43.891703643295671
 21
-0.7775363496603234
 31
0.0
  0
CIRCLE
  5
3FE96
  8
OBJ
  6
CONTINUOUS
 10
44.768915666763249
 20
-0.6195572760536763
 30
0.0
 40
0.0402769183160991
  0
CIRCLE
  5
3FE97
  8
OBJ
  6
CONTINUOUS
 10
44.389350698851182
 20
-0.6195572760536763
 30
0.0
 40
0.0402769183160991
  0
LINE
  5
3FE98
  8
OBJ
  6
CONTINUOUS
 10
44.360870616784588
 20
-0.5910771939870722
 30
0.0
 11
44.417830780917797
 21
-0.6480373581202948
 31
0.0
  0
CIRCLE
  5
3FE99
  8
OBJ
  6
CONTINUOUS
 10
44.579133182807233
 20
-0.6195572760536763
 30
0.0
 40
0.0402769183160991
  0
LINE
  5
3FE9A
  8
OBJ
  6
CONTINUOUS
 10
44.550653100740618
 20
-0.5910771939870722
 30
0.0
 11
44.607613264873841
 21
-0.6480373581202948
 31
0.0
  0
LINE
  5
3FE9B
  8
OBJ
  6
CONTINUOUS
 10
44.740435584696662
 20
-0.5910771939870722
 30
0.0
 11
44.797395748829857
 21
-0.6480373581202948
 31
0.0
  0
CIRCLE
  5
3FE9C
  8
OBJ
  6
CONTINUOUS
 10
44.19956821489518
 20
-0.6195572760536763
 30
0.0
 40
0.0402769183160991
  0
LINE
  5
3FE9D
  8
OBJ
  6
CONTINUOUS
 10
44.171088132828572
 20
-0.5910771939870722
 30
0.0
 11
44.228048296961788
 21
-0.6480373581202948
 31
0.0
  0
LINE
  5
3FEA0
  8
OBJ
  6
CONTINUOUS
 10
43.729109414257657
 20
-0.0379684681933998
 30
0.0
 11
43.729109414257657
 21
-0.0876274386878091
 31
0.0
  0
TEXT
  5
3FEA1
  8
OBJ
  6
CONTINUOUS
 10
43.889300056625672
 20
-0.0196633752736748
 30
0.0
 40
0.0438068230436382
  1
2A
  0
CIRCLE
  5
3FEA3
  8
OBJ
  6
CONTINUOUS
 10
43.191856413752006
 20
1.0324106415777361
 30
0.0
 40
0.0402769183160991
  0
LINE
  5
3FEA4
  8
OBJ
  6
CONTINUOUS
 10
43.156751553353509
 20
1.014499126994646
 30
0.0
 11
43.228901613488787
 21
1.050322156160834
 31
0.0
  0
LINE
  5
3FEA5
  8
OBJ
  6
CONTINUOUS
 62
     7
 10
43.251641566501043
 20
0.4462599407994477
 30
0.0
 11
43.022799550616163
 21
0.4462599407994477
 31
0.0
  0
LINE
  5
3FEA6
  8
OBJ
  6
CONTINUOUS
 62
     7
 10
43.816913088848693
 20
0.8933979940940188
 30
0.0
 11
42.362634739354959
 21
0.8933979940940207
 31
0.0
  0
LINE
  5
3FEA7
  8
OBJ
  6
CONTINUOUS
 62
     7
 10
42.793957534731291
 20
0.5210547891738431
 30
0.0
 11
43.022799550616163
 21
0.4462599407994477
 31
0.0
  0
LINE
  5
3FEA8
  8
OBJ
  6
CONTINUOUS
 62
     7
 10
42.793957534731291
 20
0.5895034079892004
 30
0.0
 11
42.793957534731291
 21
0.5210547891738431
 31
0.0
  0
ARC
  5
3FEA9
  8
OBJ
  6
CONTINUOUS
 62
     7
 10
42.416205775264672
 20
0.8632978832505919
 30
0.0
 40
0.0755503518933231
 50
180.0
 51
270.0
  0
CIRCLE
  5
3FEAA
  8
OBJ
  6
CONTINUOUS
 10
42.800103103361998
 20
1.0324106415777361
 30
0.0
 40
0.0402769183160991
  0
CIRCLE
  5
3FEAB
  8
OBJ
  6
CONTINUOUS
 10
43.004847851440381
 20
1.0324106415777361
 30
0.0
 40
0.0402769183160991
  0
LINE
  5
3FEAC
  8
OBJ
  6
CONTINUOUS
 10
42.968772821372738
 20
1.014499126994646
 30
0.0
 11
43.040922881508031
 21
1.050322156160834
 31
0.0
  0
LINE
  5
3FEAD
  8
OBJ
  6
CONTINUOUS
 10
42.764028073294348
 20
1.014499126994646
 30
0.0
 11
42.836178133429641
 21
1.050322156160834
 31
0.0
  0
CIRCLE
  5
3FEAE
  8
OBJ
  6
CONTINUOUS
 10
42.450438413946003
 20
1.0324106415777361
 30
0.0
 40
0.0402769183160991
  0
LINE
  5
3FEAF
  8
OBJ
  6
CONTINUOUS
 10
42.415333553547491
 20
1.014499126994646
 30
0.0
 11
42.48748361368277
 21
1.050322156160834
 31
0.0
  0
CIRCLE
  5
3FEB0
  8
OBJ
  6
CONTINUOUS
 10
42.63101068786068
 20
1.0324106415777361
 30
0.0
 40
0.0402769183160991
  0
LINE
  5
3FEB1
  8
OBJ
  6
CONTINUOUS
 10
42.591599432542729
 20
1.014499126994646
 30
0.0
 11
42.663749492678022
 21
1.050322156160834
 31
0.0
  0
LINE
  5
3FEB2
  8
OBJ
  6
CONTINUOUS
 62
     7
 10
44.460447196794213
 20
0.4462599407994477
 30
0.0
 11
43.31842807757473
 21
0.4462599407994477
 31
0.0
  0
LINE
  5
3FEB3
  8
OBJ
  6
CONTINUOUS
 10
43.552843535262433
 20
0.5537801275494036
 30
0.0
 11
43.552843535262433
 21
0.3158471043686521
 31
0.0
  0
ARC
  5
3FEB4
  8
OBJ
  6
CONTINUOUS
 62
     7
 10
43.285034822037879
 20
0.5210547891738379
 30
0.0
 40
0.0333932555368488
 50
0.0
 51
180.0
  0
LINE
  5
3FEB5
  8
OBJ
  6
CONTINUOUS
 62
     7
 10
43.251641566501043
 20
0.5210547891738431
 30
0.0
 11
43.251641566501043
 21
0.4462599407994477
 31
0.0
  0
LINE
  5
3FEB6
  8
OBJ
  6
CONTINUOUS
 62
     7
 10
43.31842807757473
 20
0.5210547891738431
 30
0.0
 11
43.31842807757473
 21
0.4462599407994477
 31
0.0
  0
LINE
  5
3FEB7
  8
OBJ
  6
CONTINUOUS
 10
43.369092462416383
 20
0.5537801275494036
 30
0.0
 11
43.369092462416383
 21
0.3158471043686521
 31
0.0
  0
LINE
  5
3FEB8
  8
OBJ
  6
CONTINUOUS
 62
     7
 10
44.756075723752772
 20
0.4462599407994521
 30
0.0
 11
44.5272337078679
 21
0.4462599407994521
 31
0.0
  0
ARC
  5
3FEB9
  8
OBJ
  6
CONTINUOUS
 62
     7
 10
44.49384045233105
 20
0.5210547891738379
 30
0.0
 40
0.0333932555368488
 50
0.0
 51
180.0
  0
LINE
  5
3FEBA
  8
OBJ
  6
CONTINUOUS
 62
     7
 10
44.460447196794213
 20
0.5210547891738431
 30
0.0
 11
44.460447196794213
 21
0.4462599407994477
 31
0.0
  0
LINE
  5
3FEBB
  8
OBJ
  6
CONTINUOUS
 62
     7
 10
44.5272337078679
 20
0.5210547891738431
 30
0.0
 11
44.5272337078679
 21
0.4462599407994521
 31
0.0
  0
CIRCLE
  5
3FEBC
  8
OBJ
  6
CONTINUOUS
 62
     7
 10
44.009785730939143
 20
0.9187784708965116
 30
0.0
 40
0.0779075228723947
  0
LINE
  5
3FEBD
  8
OBJ
  6
CONTINUOUS
 10
44.047329111748901
 20
0.9404541519133121
 30
0.0
 11
44.009785730939129
 21
0.9621298329301133
 31
0.0
  0
LINE
  5
3FEBE
  8
OBJ
  6
CONTINUOUS
 10
43.964093130667472
 20
1.0157034883112579
 30
0.0
 11
44.0577840864443
 21
1.0157034883112579
 31
0.0
  0
LINE
  5
3FEBF
  8
OBJ
  6
CONTINUOUS
 10
44.009785730939129
 20
0.8754271088629198
 30
0.0
 11
44.047329111748901
 21
0.8971027898797157
 31
0.0
  0
CIRCLE
  5
3FEC0
  8
OBJ
  6
CONTINUOUS
 10
44.009785730939143
 20
0.9187784708965116
 30
0.0
 40
0.028168665929907
  0
CIRCLE
  5
3FEC1
  8
OBJ
  6
CONTINUOUS
 10
43.552843535262433
 20
1.0324106415777361
 30
0.0
 40
0.0402769183160991
  0
CIRCLE
  5
3FEC2
  8
OBJ
  6
CONTINUOUS
 10
43.729109414257657
 20
1.0324106415777361
 30
0.0
 40
0.0402769183160991
  0
LINE
  5
3FEC3
  8
OBJ
  6
CONTINUOUS
 10
44.009785730939129
 20
0.9621298329301133
 30
0.0
 11
43.972242350129392
 21
0.9404541519133121
 31
0.0
  0
ARC
  5
3FEC4
  8
OBJ
  6
CONTINUOUS
 10
43.964093130667472
 20
1.0277915446141961
 30
0.0
 40
0.0120880563029317
 50
180.0
 51
269.99999999999972
  0
LINE
  5
3FEC5
  8
OBJ
  6
CONTINUOUS
 10
43.972242350129392
 20
0.8971027898797157
 30
0.0
 11
44.009785730939129
 21
0.8754271088629198
 31
0.0
  0
LINE
  5
3FEC6
  8
OBJ
  6
CONTINUOUS
 10
43.972242350129392
 20
0.9404541519133121
 30
0.0
 11
43.972242350129392
 21
0.8971027898797157
 31
0.0
  0
LINE
  5
3FEC7
  8
OBJ
  6
CONTINUOUS
 10
43.693034384190007
 20
1.014499126994646
 30
0.0
 11
43.7651844443253
 21
1.050322156160834
 31
0.0
  0
ARC
  5
3FEC8
  8
OBJ
  6
CONTINUOUS
 10
44.0577840864443
 20
1.0277915446141881
 30
0.0
 40
0.0120880563029317
 50
270.0
 51
0.0
  0
LINE
  5
3FEC9
  8
OBJ
  6
CONTINUOUS
 10
44.047329111748901
 20
0.8971027898797157
 30
0.0
 11
44.047329111748901
 21
0.9404541519133121
 31
0.0
  0
LINE
  5
3FECA
  8
OBJ
  6
CONTINUOUS
 10
43.516768505194783
 20
1.014499126994646
 30
0.0
 11
43.588918565330069
 21
1.050322156160834
 31
0.0
  0
CIRCLE
  5
3FECB
  8
OBJ
  6
CONTINUOUS
 10
43.369092462416383
 20
1.0324106415777361
 30
0.0
 40
0.0402769183160991
  0
LINE
  5
3FECC
  8
OBJ
  6
CONTINUOUS
 10
43.333017432348747
 20
1.014499126994646
 30
0.0
 11
43.405167492484033
 21
1.050322156160834
 31
0.0
  0
CIRCLE
  5
3FECD
  8
OBJ
  6
CONTINUOUS
 62
     7
 10
44.768915666763242
 20
0.9187784708965116
 30
0.0
 40
0.0779075228723947
  0
LINE
  5
3FECE
  8
OBJ
  6
CONTINUOUS
 10
44.768915666763242
 20
0.9621298329301133
 30
0.0
 11
44.731372285953498
 21
0.9404541519133121
 31
0.0
  0
LINE
  5
3FECF
  8
OBJ
  6
CONTINUOUS
 10
44.723223066491578
 20
1.0157034883112579
 30
0.0
 11
44.816914022268399
 21
1.0157034883112579
 31
0.0
  0
LINE
  5
3FED0
  8
OBJ
  6
CONTINUOUS
 10
44.731372285953498
 20
0.8971027898797157
 30
0.0
 11
44.768915666763242
 21
0.8754271088629198
 31
0.0
  0
LINE
  5
3FED1
  8
OBJ
  6
CONTINUOUS
 10
44.389350698851203
 20
0.9621298329301133
 30
0.0
 11
44.351807318041438
 21
0.9404541519133121
 31
0.0
  0
LINE
  5
3FED2
  8
OBJ
  6
CONTINUOUS
 10
44.351807318041438
 20
0.8971027898797157
 30
0.0
 11
44.389350698851203
 21
0.8754271088629198
 31
0.0
  0
CIRCLE
  5
3FED3
  8
OBJ
  6
CONTINUOUS
 10
44.389350698851182
 20
0.9187784708965116
 30
0.0
 40
0.028168665929907
  0
LINE
  5
3FED4
  8
OBJ
  6
CONTINUOUS
 10
44.351807318041438
 20
0.9404541519133121
 30
0.0
 11
44.351807318041438
 21
0.8971027898797157
 31
0.0
  0
LINE
  5
3FED5
  8
OBJ
  6
CONTINUOUS
 10
44.426894079660947
 20
0.9404541519133121
 30
0.0
 11
44.389350698851203
 21
0.9621298329301133
 31
0.0
  0
ARC
  5
3FED6
  8
OBJ
  6
CONTINUOUS
 10
44.437349054356339
 20
1.0277915446141881
 30
0.0
 40
0.0120880563029317
 50
270.0
 51
0.0
  0
LINE
  5
3FED7
  8
OBJ
  6
CONTINUOUS
 10
44.389350698851203
 20
0.8754271088629198
 30
0.0
 11
44.426894079660947
 21
0.8971027898797157
 31
0.0
  0
LINE
  5
3FED8
  8
OBJ
  6
CONTINUOUS
 10
44.426894079660947
 20
0.8971027898797157
 30
0.0
 11
44.426894079660947
 21
0.9404541519133121
 31
0.0
  0
ARC
  5
3FED9
  8
OBJ
  6
CONTINUOUS
 10
44.723223066491578
 20
1.0277915446141961
 30
0.0
 40
0.0120880563029317
 50
180.0
 51
269.99999999999972
  0
LINE
  5
3FEDA
  8
OBJ
  6
CONTINUOUS
 10
44.731372285953498
 20
0.9404541519133121
 30
0.0
 11
44.731372285953498
 21
0.8971027898797157
 31
0.0
  0
ARC
  5
3FEDB
  8
OBJ
  6
CONTINUOUS
 10
44.816914022268399
 20
1.0277915446141881
 30
0.0
 40
0.0120880563029317
 50
270.0
 51
0.0
  0
LINE
  5
3FEDC
  8
OBJ
  6
CONTINUOUS
 10
44.806459047573
 20
0.9404541519133121
 30
0.0
 11
44.768915666763242
 21
0.9621298329301133
 31
0.0
  0
LINE
  5
3FEDD
  8
OBJ
  6
CONTINUOUS
 10
44.768915666763242
 20
0.8754271088629198
 30
0.0
 11
44.806459047573
 21
0.8971027898797157
 31
0.0
  0
LINE
  5
3FEDE
  8
OBJ
  6
CONTINUOUS
 10
44.806459047573
 20
0.8971027898797157
 30
0.0
 11
44.806459047573
 21
0.9404541519133121
 31
0.0
  0
CIRCLE
  5
3FEDF
  8
OBJ
  6
CONTINUOUS
 10
44.768915666763242
 20
0.9187784708965116
 30
0.0
 40
0.028168665929907
  0
ARC
  5
3FEE0
  8
OBJ
  6
CONTINUOUS
 10
44.343658098579517
 20
1.0277915446141961
 30
0.0
 40
0.0120880563029317
 50
180.0
 51
269.99999999999972
  0
CIRCLE
  5
3FEE1
  8
OBJ
  6
CONTINUOUS
 62
     7
 10
44.389350698851182
 20
0.9187784708965116
 30
0.0
 40
0.0779075228723947
  0
LINE
  5
3FEE2
  8
OBJ
  6
CONTINUOUS
 10
44.343658098579517
 20
1.0157034883112579
 30
0.0
 11
44.437349054356339
 21
1.0157034883112579
 31
0.0
  0
LINE
  5
3FEE3
  8
OBJ
  6
CONTINUOUS
 62
     7
 10
42.79169102417449
 20
2.0509494150136338
 30
0.0
 11
42.79169102417449
 21
2.005619203877635
 31
0.0
  0
LINE
  5
3FEE4
  8
OBJ
  6
CONTINUOUS
 62
     7
 10
42.685920531523841
 20
2.0509494150136338
 30
0.0
 11
42.685920531523841
 21
2.005619203877635
 31
0.0
  0
LINE
  5
3FEE5
  8
OBJ
  6
HIDDEN
 62
     7
 10
44.931276989793382
 20
1.8711395775075199
 30
0.0
 11
44.931276989793382
 21
2.0675704924301659
 31
0.0
  0
LINE
  5
3FEE6
  8
OBJ
  6
CONTINUOUS
 62
     7
 10
44.946387060172057
 20
1.8552740036099229
 30
0.0
 11
44.946387060172057
 21
2.0592599537219032
 31
0.0
  0
TEXT
  5
3FEE7
  8
OBJ
  6
CONTINUOUS
 10
42.62099510391387
 20
1.421638371134619
 30
0.0
 40
0.0755503518933231
  1
NEXUS 1250
  7
SIMPLEX
  0
TEXT
  5
3FEE8
  8
OBJ
  6
CONTINUOUS
 10
43.129145373319297
 20
1.2024634932193821
 30
0.0
 40
0.04
  1
Vref.
  7
SIMPLEX
  0
LINE
  5
3FEE9
  8
OBJ
  6
CONTINUOUS
 10
43.264454380518153
 20
1.2647572129108191
 30
0.0
 11
43.116333087205192
 21
1.2647572129108191
 31
0.0
  0
LINE
  5
3FEEA
  8
OBJ
  6
CONTINUOUS
 10
43.116333087205192
 20
1.1833717688007179
 30
0.0
 11
43.264454380518139
 21
1.1833717688007179
 31
0.0
  0
LINE
  5
3FEEB
  8
OBJ
  6
CONTINUOUS
 62
     7
 10
43.816913088848693
 20
1.171423289061444
 30
0.0
 11
42.362634739354959
 21
1.171423289061444
 31
0.0
  0
LINE
  5
3FEEC
  8
OBJ
  6
CONTINUOUS
 10
43.075520217765828
 20
1.2647572129108191
 30
0.0
 11
42.931505945885277
 21
1.2647572129108191
 31
0.0
  0
LINE
  5
3FEED
  8
OBJ
  6
CONTINUOUS
 10
42.931505945885277
 20
1.1833717688007179
 30
0.0
 11
43.075520217765821
 21
1.1833717688007179
 31
0.0
  0
TEXT
  5
3FEEE
  8
OBJ
  6
CONTINUOUS
 10
42.93164380693041
 20
1.205474801408551
 30
0.0
 40
0.04
  1
Vaux.
  7
SIMPLEX
  0
LINE
  5
3FEEF
  8
OBJ
  6
CONTINUOUS
 10
42.73235208057676
 20
1.1833717688007179
 30
0.0
 11
42.89731735094437
 21
1.1833717688007179
 31
0.0
  0
LINE
  5
3FEF0
  8
OBJ
  6
CONTINUOUS
 10
42.89362102260511
 20
1.2647572129108191
 30
0.0
 11
42.730709262953688
 21
1.2647572129108191
 31
0.0
  0
TEXT
  5
3FEF1
  8
OBJ
  6
CONTINUOUS
 10
42.732283895020409
 20
1.2024634932193821
 30
0.0
 40
0.04
  1
CHASIS
 41
0.8
  7
SIMPLEX
  0
ARC
  5
3FEF2
  8
OBJ
  6
CONTINUOUS
 10
42.698844747369932
 20
1.2514858584908739
 30
0.0
 40
0.0132763984077328
 50
352.039227202257
 51
88.420577735335499
  0
ARC
  5
3FEF3
  8
OBJ
  6
CONTINUOUS
 10
42.698844747369932
 20
1.196643123220672
 30
0.0
 40
0.0132763984077345
 50
271.57942226466452
 51
7.9607727977391702
  0
LINE
  5
3FEF4
  8
OBJ
  6
CONTINUOUS
 10
42.711993202728038
 20
1.1984818391793881
 30
0.0
 11
42.711993202728038
 21
1.249647142532158
 31
0.0
  0
ARC
  5
3FEF5
  8
OBJ
  6
CONTINUOUS
 10
42.733658937553557
 20
1.249647142532158
 30
0.0
 40
0.0151100703786646
 50
90.0
 51
180.0
  0
LINE
  5
3FEF6
  8
OBJ
  6
CONTINUOUS
 10
42.71854886717491
 20
1.249647142532158
 30
0.0
 11
42.71854886717491
 21
1.1984818391793881
 31
0.0
  0
ARC
  5
3FEF7
  8
OBJ
  6
CONTINUOUS
 10
42.733658937553557
 20
1.1984818391793881
 30
0.0
 40
0.0151100703786646
 50
179.9999999999971
 51
270.0
  0
ARC
  5
3FEF8
  8
OBJ
  6
CONTINUOUS
 10
42.894375331894942
 20
1.249647142532158
 30
0.0
 40
0.0151100703786646
 50
0.0
 51
90.0
  0
LINE
  5
3FEF9
  8
OBJ
  6
CONTINUOUS
 10
42.909485402273603
 20
1.1984818391793881
 30
0.0
 11
42.909485402273603
 21
1.249647142532158
 31
0.0
  0
ARC
  5
3FEFA
  8
OBJ
  6
CONTINUOUS
 10
42.894375331894921
 20
1.1984818391793881
 30
0.0
 40
0.0151100703786646
 50
270.0
 51
359.9999999999971
  0
LINE
  5
3FEFB
  8
OBJ
  6
CONTINUOUS
 10
42.916395875506637
 20
1.249647142532158
 30
0.0
 11
42.916395875506637
 21
1.1984818391793881
 31
0.0
  0
ARC
  5
3FEFC
  8
OBJ
  6
CONTINUOUS
 10
42.931505945885277
 20
1.249647142532158
 30
0.0
 40
0.0151100703786646
 50
90.0
 51
180.0
  0
ARC
  5
3FEFD
  8
OBJ
  6
CONTINUOUS
 10
42.931505945885277
 20
1.1984818391793881
 30
0.0
 40
0.0151100703786646
 50
179.9999999999971
 51
270.0
  0
LINE
  5
3FEFE
  8
OBJ
  6
CONTINUOUS
 10
43.101223016826552
 20
1.249647142532158
 30
0.0
 11
43.101223016826552
 21
1.1984818391793881
 31
0.0
  0
ARC
  5
3FEFF
  8
OBJ
  6
CONTINUOUS
 10
43.116333087205192
 20
1.249647142532158
 30
0.0
 40
0.0151100703786646
 50
90.0
 51
180.0
  0
ARC
  5
3FF00
  8
OBJ
  6
CONTINUOUS
 10
43.116333087205192
 20
1.1984818391793881
 30
0.0
 40
0.0151100703786646
 50
179.9999999999971
 51
270.0
  0
ARC
  5
3FF01
  8
OBJ
  6
CONTINUOUS
 10
43.075520217765828
 20
1.249647142532158
 30
0.0
 40
0.0151100703786646
 50
0.0
 51
90.0
  0
LINE
  5
3FF02
  8
OBJ
  6
CONTINUOUS
 10
43.090630288144489
 20
1.1984818391793881
 30
0.0
 11
43.090630288144489
 21
1.249647142532158
 31
0.0
  0
ARC
  5
3FF03
  8
OBJ
  6
CONTINUOUS
 10
43.075520217765821
 20
1.1984818391793881
 30
0.0
 40
0.0151100703786646
 50
270.0
 51
359.9999999999971
  0
TEXT
  5
3FF04
  8
OBJ
  6
CONTINUOUS
 10
42.401233533010959
 20
1.194981890407036
 30
0.0
 40
0.06
  1
L+
  7
SIMPLEX
  0
LINE
  5
3FF05
  8
OBJ
  6
CONTINUOUS
 10
42.518979400531251
 20
1.2647572129108191
 30
0.0
 11
42.379108033690763
 21
1.2647572129108191
 31
0.0
  0
LINE
  5
3FF06
  8
OBJ
  6
CONTINUOUS
 10
42.379108033690763
 20
1.1833717688007179
 30
0.0
 11
42.518979400531236
 21
1.1833717688007179
 31
0.0
  0
ARC
  5
3FF07
  8
OBJ
  6
CONTINUOUS
 10
42.379108033690763
 20
1.249647142532158
 30
0.0
 40
0.0151100703786646
 50
90.0
 51
180.0
  0
LINE
  5
3FF08
  8
OBJ
  6
CONTINUOUS
 10
42.363997963312123
 20
1.249647142532158
 30
0.0
 11
42.363997963312123
 21
1.1984818391793881
 31
0.0
  0
ARC
  5
3FF09
  8
OBJ
  6
CONTINUOUS
 10
42.379108033690763
 20
1.1984818391793881
 30
0.0
 40
0.0151100703786646
 50
179.9999999999971
 51
270.0
  0
ARC
  5
3FF0A
  8
OBJ
  6
CONTINUOUS
 10
42.559339312956261
 20
1.1984818391793881
 30
0.0
 40
0.0151100703786646
 50
179.9999999999971
 51
270.0
  0
LINE
  5
3FF0B
  8
OBJ
  6
CONTINUOUS
 10
42.544229242577607
 20
1.249647142532158
 30
0.0
 11
42.544229242577607
 21
1.1984818391793881
 31
0.0
  0
ARC
  5
3FF0C
  8
OBJ
  6
CONTINUOUS
 10
42.559339312956261
 20
1.249647142532158
 30
0.0
 40
0.0151100703786646
 50
90.0
 51
180.0
  0
LINE
  5
3FF0D
  8
OBJ
  6
CONTINUOUS
 10
42.534089470909912
 20
1.1984818391793881
 30
0.0
 11
42.534089470909912
 21
1.249647142532158
 31
0.0
  0
ARC
  5
3FF0E
  8
OBJ
  6
CONTINUOUS
 10
42.518979400531251
 20
1.249647142532158
 30
0.0
 40
0.0151100703786646
 50
0.0
 51
90.0
  0
ARC
  5
3FF0F
  8
OBJ
  6
CONTINUOUS
 10
42.518979400531236
 20
1.1984818391793881
 30
0.0
 40
0.0151100703786646
 50
270.0
 51
359.9999999999971
  0
LINE
  5
3FF10
  8
OBJ
  6
CONTINUOUS
 10
42.559339312956261
 20
1.1833717688007179
 30
0.0
 11
42.699210679796742
 21
1.1833717688007179
 31
0.0
  0
LINE
  5
3FF11
  8
OBJ
  6
CONTINUOUS
 10
42.699210679796757
 20
1.2647572129108191
 30
0.0
 11
42.559339312956261
 21
1.2647572129108191
 31
0.0
  0
TEXT
  5
3FF12
  8
OBJ
  6
CONTINUOUS
 10
42.57564592103278
 20
1.194981890407036
 30
0.0
 40
0.06
  1
N-
  7
SIMPLEX
  0
LINE
  5
3FF13
  8
OBJ
  6
CONTINUOUS
 62
     7
 10
42.685920531523841
 20
2.005619203877635
 30
0.0
 11
42.79169102417449
 21
2.005619203877635
 31
0.0
  0
TEXT
  5
3FF14
  8
OBJ
  6
CONTINUOUS
 10
43.978738007503239
 20
1.227747979935077
 30
0.0
 40
0.0568138646237789
  1
Ia
  7
SIMPLEX
  0
LINE
  5
3FF15
  8
OBJ
  6
CONTINUOUS
 10
44.065769184840612
 20
1.318400485718483
 30
0.0
 11
43.953802277037667
 21
1.318400485718483
 31
0.0
  0
LINE
  5
3FF16
  8
OBJ
  6
CONTINUOUS
 10
43.953802277037667
 20
1.19081538376862
 30
0.0
 11
44.065769184840612
 21
1.19081538376862
 31
0.0
  0
LINE
  5
3FF17
  8
OBJ
  6
CONTINUOUS
 10
44.0577840864443
 20
1.100330505273768
 30
0.0
 11
43.964093130667472
 21
1.100330505273768
 31
0.0
  0
ARC
  5
3FF18
  8
OBJ
  6
CONTINUOUS
 10
43.658964277810192
 20
1.1984818391793881
 30
0.0
 40
0.0151100703786646
 50
179.9999999999971
 51
270.0
  0
ARC
  5
3FF19
  8
OBJ
  6
CONTINUOUS
 10
43.658964277810192
 20
1.249647142532158
 30
0.0
 40
0.0151100703786646
 50
90.0
 51
180.0
  0
TEXT
  5
3FF1A
  8
OBJ
  6
CONTINUOUS
 10
43.503074638701939
 20
1.194981890407036
 30
0.0
 40
0.06
  1
Vb
  7
SIMPLEX
  0
LINE
  5
3FF1B
  8
OBJ
  6
CONTINUOUS
 10
43.620820506222231
 20
1.2647572129108191
 30
0.0
 11
43.480949139381742
 21
1.2647572129108191
 31
0.0
  0
LINE
  5
3FF1C
  8
OBJ
  6
CONTINUOUS
 10
43.480949139381742
 20
1.1833717688007179
 30
0.0
 11
43.620820506222223
 21
1.1833717688007179
 31
0.0
  0
ARC
  5
3FF1D
  8
OBJ
  6
CONTINUOUS
 10
43.620820506222223
 20
1.1984818391793881
 30
0.0
 40
0.0151100703786646
 50
270.0
 51
359.9999999999971
  0
ARC
  5
3FF1E
  8
OBJ
  6
CONTINUOUS
 10
43.620820506222231
 20
1.249647142532158
 30
0.0
 40
0.0151100703786646
 50
0.0
 51
90.0
  0
LINE
  5
3FF1F
  8
OBJ
  6
CONTINUOUS
 10
43.635930576600892
 20
1.1984818391793881
 30
0.0
 11
43.635930576600892
 21
1.249647142532158
 31
0.0
  0
LINE
  5
3FF20
  8
OBJ
  6
CONTINUOUS
 10
43.643854207431538
 20
1.249647142532158
 30
0.0
 11
43.643854207431538
 21
1.1984818391793881
 31
0.0
  0
LINE
  5
3FF21
  8
OBJ
  6
CONTINUOUS
 10
43.813945715029341
 20
1.1984818391793881
 30
0.0
 11
43.813945715029341
 21
1.249647142532158
 31
0.0
  0
ARC
  5
3FF22
  8
OBJ
  6
CONTINUOUS
 10
43.79883564465068
 20
1.249647142532158
 30
0.0
 40
0.0151100703786646
 50
0.0
 51
90.0
  0
ARC
  5
3FF23
  8
OBJ
  6
CONTINUOUS
 10
43.798835644650673
 20
1.1984818391793881
 30
0.0
 40
0.0151100703786646
 50
270.0
 51
359.9999999999971
  0
TEXT
  5
3FF24
  8
OBJ
  6
CONTINUOUS
 10
43.681089777130389
 20
1.194981890407036
 30
0.0
 40
0.06
  1
Vc
  7
SIMPLEX
  0
LINE
  5
3FF25
  8
OBJ
  6
CONTINUOUS
 10
43.658964277810192
 20
1.1833717688007179
 30
0.0
 11
43.798835644650673
 21
1.1833717688007179
 31
0.0
  0
LINE
  5
3FF26
  8
OBJ
  6
CONTINUOUS
 10
43.79883564465068
 20
1.2647572129108191
 30
0.0
 11
43.658964277810192
 21
1.2647572129108191
 31
0.0
  0
LINE
  5
3FF27
  8
OBJ
  6
CONTINUOUS
 10
43.941714220734731
 20
1.306312429415553
 30
0.0
 11
43.941714220734731
 21
1.202903440071553
 31
0.0
  0
ARC
  5
3FF28
  8
OBJ
  6
CONTINUOUS
 10
43.953802277037667
 20
1.306312429415545
 30
0.0
 40
0.0120880563029317
 50
90.0
 51
180.0
  0
ARC
  5
3FF29
  8
OBJ
  6
CONTINUOUS
 10
43.953802277037667
 20
1.202903440071553
 30
0.0
 40
0.0120880563029317
 50
180.0
 51
270.0
  0
ARC
  5
3FF2A
  8
OBJ
  6
CONTINUOUS
 10
43.964093130667472
 20
1.088242448970838
 30
0.0
 40
0.0120880563029317
 50
90.0
 51
180.0
  0
LINE
  5
3FF2B
  8
OBJ
  6
CONTINUOUS
 10
44.009785730939143
 20
1.101433771634039
 30
0.0
 11
44.009785730939143
 21
1.19081538376862
 31
0.0
  0
LINE
  5
3FF2C
  8
OBJ
  6
CONTINUOUS
 10
44.077857241143562
 20
1.202903440071553
 30
0.0
 11
44.077857241143562
 21
1.306312429415553
 31
0.0
  0
ARC
  5
3FF2D
  8
OBJ
  6
CONTINUOUS
 10
44.065769184840612
 20
1.306312429415553
 30
0.0
 40
0.0120880563029317
 50
0.0
 51
90.0
  0
ARC
  5
3FF2E
  8
OBJ
  6
CONTINUOUS
 10
44.065769184840612
 20
1.202903440071553
 30
0.0
 40
0.0120880563029317
 50
270.0
 51
0.0
  0
ARC
  5
3FF2F
  8
OBJ
  6
CONTINUOUS
 10
44.0577840864443
 20
1.088242448970838
 30
0.0
 40
0.0120880563029317
 50
0.0
 51
90.0
  0
ARC
  5
3FF30
  8
OBJ
  6
CONTINUOUS
 10
43.303674841336857
 20
1.249647142532158
 30
0.0
 40
0.0151100703786646
 50
90.0
 51
180.0
  0
ARC
  5
3FF31
  8
OBJ
  6
CONTINUOUS
 10
43.303674841336857
 20
1.1984818391793881
 30
0.0
 40
0.0151100703786646
 50
179.9999999999971
 51
270.0
  0
LINE
  5
3FF32
  8
OBJ
  6
CONTINUOUS
 10
43.28856477095821
 20
1.249647142532158
 30
0.0
 11
43.28856477095821
 21
1.1984818391793881
 31
0.0
  0
ARC
  5
3FF33
  8
OBJ
  6
CONTINUOUS
 10
43.264454380518139
 20
1.1984818391793881
 30
0.0
 40
0.0151100703786646
 50
270.0
 51
359.9999999999971
  0
LINE
  5
3FF34
  8
OBJ
  6
CONTINUOUS
 10
43.279564450896807
 20
1.1984818391793881
 30
0.0
 11
43.279564450896807
 21
1.249647142532158
 31
0.0
  0
ARC
  5
3FF35
  8
OBJ
  6
CONTINUOUS
 10
43.264454380518153
 20
1.249647142532158
 30
0.0
 40
0.0151100703786646
 50
0.0
 51
90.0
  0
LINE
  5
3FF36
  8
OBJ
  6
CONTINUOUS
 10
43.465839069003088
 20
1.249647142532158
 30
0.0
 11
43.465839069003088
 21
1.1984818391793881
 31
0.0
  0
ARC
  5
3FF37
  8
OBJ
  6
CONTINUOUS
 10
43.443546208177352
 20
1.1984818391793881
 30
0.0
 40
0.0151100703786646
 50
270.0
 51
359.9999999999971
  0
ARC
  5
3FF38
  8
OBJ
  6
CONTINUOUS
 10
43.443546208177352
 20
1.249647142532158
 30
0.0
 40
0.0151100703786646
 50
0.0
 51
90.0
  0
LINE
  5
3FF39
  8
OBJ
  6
CONTINUOUS
 10
43.45865627855602
 20
1.1984818391793881
 30
0.0
 11
43.45865627855602
 21
1.249647142532158
 31
0.0
  0
TEXT
  5
3FF3A
  8
OBJ
  6
CONTINUOUS
 10
43.325800340657061
 20
1.194981890407036
 30
0.0
 40
0.06
  1
Va
  7
SIMPLEX
  0
LINE
  5
3FF3B
  8
OBJ
  6
CONTINUOUS
 10
43.443546208177352
 20
1.2647572129108191
 30
0.0
 11
43.303674841336857
 21
1.2647572129108191
 31
0.0
  0
LINE
  5
3FF3C
  8
OBJ
  6
CONTINUOUS
 10
43.303674841336857
 20
1.1833717688007179
 30
0.0
 11
43.443546208177352
 21
1.1833717688007179
 31
0.0
  0
ARC
  5
3FF3D
  8
OBJ
  6
CONTINUOUS
 10
43.480949139381742
 20
1.249647142532158
 30
0.0
 40
0.0151100703786646
 50
90.0
 51
180.0
  0
ARC
  5
3FF3E
  8
OBJ
  6
CONTINUOUS
 10
43.480949139381742
 20
1.1984818391793881
 30
0.0
 40
0.0151100703786646
 50
179.9999999999971
 51
270.0
  0
LINE
  5
3FF3F
  8
OBJ
  6
CONTINUOUS
 10
44.824899120664718
 20
1.318400485718483
 30
0.0
 11
44.712932212861773
 21
1.318400485718483
 31
0.0
  0
LINE
  5
3FF40
  8
OBJ
  6
CONTINUOUS
 10
44.712932212861773
 20
1.19081538376862
 30
0.0
 11
44.824899120664718
 21
1.19081538376862
 31
0.0
  0
LINE
  5
3FF41
  8
OBJ
  6
CONTINUOUS
 10
44.816914022268399
 20
1.100330505273768
 30
0.0
 11
44.723223066491578
 21
1.100330505273768
 31
0.0
  0
TEXT
  5
3FF42
  8
OBJ
  6
CONTINUOUS
 10
44.35830297541527
 20
1.227747979935077
 30
0.0
 40
0.0568138646237789
  1
Ib
  7
SIMPLEX
  0
LINE
  5
3FF43
  8
OBJ
  6
CONTINUOUS
 10
44.533440582535547
 20
1.205485972267297
 30
0.0
 11
44.627131538312369
 21
1.205485972267297
 31
0.0
  0
LINE
  5
3FF44
  8
OBJ
  6
CONTINUOUS
 10
44.627131538312369
 20
1.2901129892298071
 30
0.0
 11
44.533440582535547
 21
1.2901129892298071
 31
0.0
  0
LINE
  5
3FF45
  8
OBJ
  6
CONTINUOUS
 10
44.61667656361697
 20
1.1402366358693481
 30
0.0
 11
44.579133182807233
 21
1.161912316886146
 31
0.0
  0
LINE
  5
3FF46
  8
OBJ
  6
CONTINUOUS
 10
44.61667656361697
 20
1.0968852738357491
 30
0.0
 11
44.61667656361697
 21
1.1402366358693481
 31
0.0
  0
ARC
  5
3FF47
  8
OBJ
  6
CONTINUOUS
 10
44.533440582535547
 20
1.217574028570235
 30
0.0
 40
0.0120880563029317
 50
180.0
 51
269.99999999999972
  0
ARC
  5
3FF48
  8
OBJ
  6
CONTINUOUS
 10
44.533440582535547
 20
1.2780249329268769
 30
0.0
 40
0.0120880563029317
 50
90.0
 51
180.0
  0
LINE
  5
3FF49
  8
OBJ
  6
CONTINUOUS
 10
44.521352526232619
 20
1.2780249329268769
 30
0.0
 11
44.521352526232619
 21
1.217574028570235
 31
0.0
  0
ARC
  5
3FF4A
  8
OBJ
  6
CONTINUOUS
 10
44.44533415275265
 20
1.202903440071553
 30
0.0
 40
0.0120880563029317
 50
270.0
 51
0.0
  0
ARC
  5
3FF4B
  8
OBJ
  6
CONTINUOUS
 10
44.44533415275265
 20
1.306312429415553
 30
0.0
 40
0.0120880563029317
 50
0.0
 51
90.0
  0
LINE
  5
3FF4C
  8
OBJ
  6
CONTINUOUS
 10
44.457422209055601
 20
1.202903440071553
 30
0.0
 11
44.457422209055601
 21
1.306312429415553
 31
0.0
  0
ARC
  5
3FF4D
  8
OBJ
  6
CONTINUOUS
 10
44.437349054356339
 20
1.088242448970838
 30
0.0
 40
0.0120880563029317
 50
0.0
 51
90.0
  0
LINE
  5
3FF4E
  8
OBJ
  6
CONTINUOUS
 10
44.389350698851182
 20
1.101433771634039
 30
0.0
 11
44.389350698851182
 21
1.19081538376862
 31
0.0
  0
LINE
  5
3FF4F
  8
OBJ
  6
CONTINUOUS
 10
44.541589801997468
 20
1.1402366358693481
 30
0.0
 11
44.541589801997468
 21
1.0968852738357491
 31
0.0
  0
TEXT
  5
3FF50
  8
OBJ
  6
CONTINUOUS
 10
44.543570535832274
 20
1.225530734029102
 30
0.0
 40
0.05
  1
HI
  7
SIMPLEX
  0
LINE
  5
3FF51
  8
OBJ
  6
CONTINUOUS
 10
44.579133182807233
 20
1.161912316886146
 30
0.0
 11
44.541589801997468
 21
1.1402366358693481
 31
0.0
  0
CIRCLE
  5
3FF52
  8
OBJ
  6
CONTINUOUS
 10
44.579133182807233
 20
1.1185609548525499
 30
0.0
 40
0.028168665929907
  0
LINE
  5
3FF53
  8
OBJ
  6
CONTINUOUS
 10
44.70084415655883
 20
1.306312429415553
 30
0.0
 11
44.70084415655883
 21
1.202903440071553
 31
0.0
  0
ARC
  5
3FF54
  8
OBJ
  6
CONTINUOUS
 10
44.712932212861773
 20
1.306312429415545
 30
0.0
 40
0.0120880563029317
 50
90.0
 51
180.0
  0
ARC
  5
3FF55
  8
OBJ
  6
CONTINUOUS
 10
44.712932212861773
 20
1.202903440071553
 30
0.0
 40
0.0120880563029317
 50
180.0
 51
270.0
  0
LINE
  5
3FF56
  8
OBJ
  6
CONTINUOUS
 10
44.639219594615291
 20
1.217574028570227
 30
0.0
 11
44.639219594615291
 21
1.2780249329268769
 31
0.0
  0
ARC
  5
3FF57
  8
OBJ
  6
CONTINUOUS
 10
44.627131538312369
 20
1.217574028570227
 30
0.0
 40
0.0120880563029317
 50
270.0
 51
0.0
  0
ARC
  5
3FF58
  8
OBJ
  6
CONTINUOUS
 10
44.627131538312369
 20
1.2780249329268769
 30
0.0
 40
0.0120880563029317
 50
0.0
 51
90.0
  0
ARC
  5
3FF59
  8
OBJ
  6
CONTINUOUS
 10
44.723223066491578
 20
1.088242448970838
 30
0.0
 40
0.0120880563029317
 50
90.0
 51
180.0
  0
LINE
  5
3FF5A
  8
OBJ
  6
CONTINUOUS
 10
44.900917494144672
 20
1.2780249329268769
 30
0.0
 11
44.900917494144672
 21
1.217574028570235
 31
0.0
  0
ARC
  5
3FF5B
  8
OBJ
  6
CONTINUOUS
 10
44.913005550447608
 20
1.2780249329268769
 30
0.0
 40
0.0120880563029317
 50
90.0
 51
180.0
  0
ARC
  5
3FF5C
  8
OBJ
  6
CONTINUOUS
 10
44.913005550447608
 20
1.217574028570235
 30
0.0
 40
0.0120880563029317
 50
180.0
 51
269.99999999999972
  0
LINE
  5
3FF5D
  8
OBJ
  6
CONTINUOUS
 10
44.836987176967668
 20
1.202903440071553
 30
0.0
 11
44.836987176967668
 21
1.306312429415553
 31
0.0
  0
ARC
  5
3FF5E
  8
OBJ
  6
CONTINUOUS
 10
44.824899120664718
 20
1.306312429415553
 30
0.0
 40
0.0120880563029317
 50
0.0
 51
90.0
  0
ARC
  5
3FF5F
  8
OBJ
  6
CONTINUOUS
 10
44.824899120664718
 20
1.202903440071553
 30
0.0
 40
0.0120880563029317
 50
270.0
 51
0.0
  0
LINE
  5
3FF60
  8
OBJ
  6
CONTINUOUS
 10
44.958395949311708
 20
1.161912316886146
 30
0.0
 11
44.92085256850195
 21
1.1402366358693481
 31
0.0
  0
TEXT
  5
3FF61
  8
OBJ
  6
CONTINUOUS
 10
44.737867943327338
 20
1.227747979935077
 30
0.0
 40
0.0568138646237789
  1
Ic
  7
SIMPLEX
  0
ARC
  5
3FF62
  8
OBJ
  6
CONTINUOUS
 10
44.816914022268399
 20
1.088242448970838
 30
0.0
 40
0.0120880563029317
 50
0.0
 51
90.0
  0
LINE
  5
3FF63
  8
OBJ
  6
CONTINUOUS
 10
44.768915666763242
 20
1.101433771634039
 30
0.0
 11
44.768915666763242
 21
1.19081538376862
 31
0.0
  0
LINE
  5
3FF64
  8
OBJ
  6
CONTINUOUS
 10
44.92085256850195
 20
1.1402366358693481
 30
0.0
 11
44.92085256850195
 21
1.0968852738357491
 31
0.0
  0
ARC
  5
3FF65
  8
OBJ
  6
CONTINUOUS
 10
44.247566570400323
 20
1.2780249329268769
 30
0.0
 40
0.0120880563029317
 50
0.0
 51
90.0
  0
ARC
  5
3FF66
  8
OBJ
  6
CONTINUOUS
 10
44.247566570400323
 20
1.217574028570227
 30
0.0
 40
0.0120880563029317
 50
270.0
 51
0.0
  0
LINE
  5
3FF67
  8
OBJ
  6
CONTINUOUS
 10
44.141787558320573
 20
1.2780249329268769
 30
0.0
 11
44.141787558320573
 21
1.217574028570235
 31
0.0
  0
ARC
  5
3FF68
  8
OBJ
  6
CONTINUOUS
 10
44.153875614623523
 20
1.2780249329268769
 30
0.0
 40
0.0120880563029317
 50
90.0
 51
180.0
  0
ARC
  5
3FF69
  8
OBJ
  6
CONTINUOUS
 10
44.153875614623523
 20
1.217574028570235
 30
0.0
 40
0.0120880563029317
 50
180.0
 51
269.99999999999972
  0
LINE
  5
3FF6A
  8
OBJ
  6
CONTINUOUS
 10
44.199568214895159
 20
1.161912316886146
 30
0.0
 11
44.162024834085408
 21
1.1402366358693481
 31
0.0
  0
TEXT
  5
3FF6B
  8
OBJ
  6
CONTINUOUS
 10
44.164005567920221
 20
1.225530734029102
 30
0.0
 40
0.05
  1
HI
  7
SIMPLEX
  0
LINE
  5
3FF6C
  8
OBJ
  6
CONTINUOUS
 10
44.247566570400323
 20
1.2901129892298071
 30
0.0
 11
44.153875614623523
 21
1.2901129892298071
 31
0.0
  0
LINE
  5
3FF6D
  8
OBJ
  6
CONTINUOUS
 10
44.153875614623523
 20
1.205485972267297
 30
0.0
 11
44.247566570400323
 21
1.205485972267297
 31
0.0
  0
LINE
  5
3FF6E
  8
OBJ
  6
CONTINUOUS
 10
44.23711159570491
 20
1.1402366358693481
 30
0.0
 11
44.199568214895159
 21
1.161912316886146
 31
0.0
  0
LINE
  5
3FF6F
  8
OBJ
  6
CONTINUOUS
 10
44.23711159570491
 20
1.0968852738357491
 30
0.0
 11
44.23711159570491
 21
1.1402366358693481
 31
0.0
  0
LINE
  5
3FF70
  8
OBJ
  6
CONTINUOUS
 10
44.162024834085408
 20
1.1402366358693481
 30
0.0
 11
44.162024834085408
 21
1.0968852738357491
 31
0.0
  0
CIRCLE
  5
3FF71
  8
OBJ
  6
CONTINUOUS
 10
44.19956821489518
 20
1.1185609548525499
 30
0.0
 40
0.028168665929907
  0
LINE
  5
3FF72
  8
OBJ
  6
CONTINUOUS
 10
44.32127918864677
 20
1.306312429415553
 30
0.0
 11
44.32127918864677
 21
1.202903440071553
 31
0.0
  0
LINE
  5
3FF73
  8
OBJ
  6
CONTINUOUS
 10
44.259654626703252
 20
1.217574028570227
 30
0.0
 11
44.259654626703252
 21
1.2780249329268769
 31
0.0
  0
ARC
  5
3FF74
  8
OBJ
  6
CONTINUOUS
 10
44.333367244949713
 20
1.202903440071553
 30
0.0
 40
0.0120880563029317
 50
180.0
 51
270.0
  0
ARC
  5
3FF75
  8
OBJ
  6
CONTINUOUS
 10
44.333367244949713
 20
1.306312429415545
 30
0.0
 40
0.0120880563029317
 50
90.0
 51
180.0
  0
ARC
  5
3FF76
  8
OBJ
  6
CONTINUOUS
 10
44.343658098579517
 20
1.088242448970838
 30
0.0
 40
0.0120880563029317
 50
90.0
 51
180.0
  0
LINE
  5
3FF77
  8
OBJ
  6
CONTINUOUS
 10
44.333367244949713
 20
1.19081538376862
 30
0.0
 11
44.44533415275265
 21
1.19081538376862
 31
0.0
  0
LINE
  5
3FF78
  8
OBJ
  6
CONTINUOUS
 10
44.44533415275265
 20
1.318400485718483
 30
0.0
 11
44.333367244949713
 21
1.318400485718483
 31
0.0
  0
LINE
  5
3FF79
  8
OBJ
  6
CONTINUOUS
 10
44.437349054356339
 20
1.100330505273768
 30
0.0
 11
44.343658098579517
 21
1.100330505273768
 31
0.0
  0
ARC
  5
3FF7A
  8
OBJ
  6
HIDDEN
 62
     7
 10
44.939134226390287
 20
1.757814049667537
 30
0.0
 40
0.0398905857996746
 50
90.0
 51
270.0
  0
LINE
  5
3FF7B
  8
OBJ
  6
CONTINUOUS
 62
     7
 10
43.251641566501043
 20
2.6311761175543511
 30
0.0
 11
43.022799550616163
 21
2.6311761175543511
 31
0.0
  0
CIRCLE
  5
3FF7C
  8
OBJ
  6
CONTINUOUS
 62
     7
 10
43.210239973663477
 20
2.055482436127229
 30
0.0
 40
0.0212447589524025
  0
ARC
  5
3FF7D
  8
OBJ
  6
CONTINUOUS
 62
     7
 10
42.416205775264672
 20
2.2609793932770681
 30
0.0
 40
0.0755503518933231
 50
90.0
 51
180.0
  0
ARC
  5
3FF7E
  8
OBJ
  6
CONTINUOUS
 10
42.808361063552191
 20
2.2102095568047551
 30
0.0
 40
0.0120880563029317
 50
354.61068824002513
 51
89.999999999997371
  0
LINE
  5
3FF7F
  8
OBJ
  6
CONTINUOUS
 10
42.820395684635052
 20
2.2090742151931599
 30
0.0
 11
42.811158585007327
 21
2.1111609591394171
 31
0.0
  0
CIRCLE
  5
3FF80
  8
OBJ
  6
CONTINUOUS
 10
42.800818754704643
 20
2.193543324951194
 30
0.0
 40
0.0135952901026457
  0
LINE
  5
3FF81
  8
OBJ
  6
CONTINUOUS
 62
     7
 10
42.82221336633939
 20
2.0941642162966119
 30
0.0
 11
42.656002592174083
 21
2.0941642162966119
 31
0.0
  0
LINE
  5
3FF82
  8
OBJ
  6
CONTINUOUS
 62
     7
 10
42.82221336633939
 20
2.2283416412591479
 30
0.0
 11
42.656002592174083
 21
2.2283416412591599
 31
0.0
  0
LINE
  5
3FF83
  8
OBJ
  6
CONTINUOUS
 10
42.656002592174083
 20
2.2283416412591599
 30
0.0
 11
42.656002592174083
 21
2.2283416412591599
 31
0.0
  0
ARC
  5
3FF84
  8
OBJ
  6
CONTINUOUS
 10
42.669346590606501
 20
2.2102095568047599
 30
0.0
 40
0.0120880563029317
 50
89.999999999997044
 51
185.65442082263891
  0
LINE
  5
3FF85
  8
OBJ
  6
CONTINUOUS
 62
     7
 10
42.808361063552191
 20
2.2222976131076799
 30
0.0
 11
42.669346590606501
 21
2.2222976131076901
 31
0.0
  0
ARC
  5
3FF86
  8
OBJ
  6
CONTINUOUS
 62
     7
 10
42.656002592174069
 20
2.188451055459474
 30
0.0
 40
0.0398905857996746
 50
90.0
 51
161.44699546497839
  0
ARC
  5
3FF87
  8
OBJ
  6
CONTINUOUS
 10
42.799123963924487
 20
2.1122963007510132
 30
0.0
 40
0.0120880563029317
 50
270.00000000000023
 51
354.61068824002541
  0
CIRCLE
  5
3FF88
  8
OBJ
  6
CONTINUOUS
 10
42.792167156266302
 20
2.1330281601034899
 30
0.0
 40
0.0129773264183839
  0
ARC
  5
3FF89
  8
OBJ
  6
CONTINUOUS
 10
42.679040972394013
 20
2.1122963007510132
 30
0.0
 40
0.0120880563029317
 50
185.65442082264019
 51
270.0
  0
CIRCLE
  5
3FF8A
  8
OBJ
  6
CONTINUOUS
 10
42.686494689486011
 20
2.1330281601034899
 30
0.0
 40
0.0129773264183839
  0
CIRCLE
  5
3FF8B
  8
OBJ
  6
CONTINUOUS
 10
42.722954778384548
 20
2.1330281601034899
 30
0.0
 40
0.0129773264183839
  0
CIRCLE
  5
3FF8C
  8
OBJ
  6
CONTINUOUS
 10
42.75447112218945
 20
2.1330281601034899
 30
0.0
 40
0.0129773264183839
  0
LINE
  5
3FF8D
  8
OBJ
  6
CONTINUOUS
 62
     7
 10
42.799123963924487
 20
2.1002082444480781
 30
0.0
 11
42.679040972394013
 21
2.1002082444480781
 31
0.0
  0
LINE
  5
3FF8E
  8
OBJ
  6
CONTINUOUS
 62
     7
 10
42.79169102417449
 20
2.0509494150136338
 30
0.0
 11
42.685920531523841
 21
2.0509494150136338
 31
0.0
  0
ARC
  5
3FF8F
  8
OBJ
  6
CONTINUOUS
 62
     7
 10
42.656002592174069
 20
2.134054802096288
 30
0.0
 40
0.0398905857996746
 50
198.5530045350211
 51
270.0
  0
LINE
  5
3FF90
  8
OBJ
  6
CONTINUOUS
 10
42.657317351586677
 20
2.209018543040421
 30
0.0
 11
42.667011733374181
 21
2.1111052869866742
 31
0.0
  0
CIRCLE
  5
3FF91
  8
OBJ
  6
CONTINUOUS
 10
42.678461125971047
 20
2.193543324951194
 30
0.0
 40
0.0135952901026457
  0
CIRCLE
  5
3FF92
  8
OBJ
  6
CONTINUOUS
 10
42.711213397144469
 20
2.193543324951194
 30
0.0
 40
0.0135952901026457
  0
CIRCLE
  5
3FF93
  8
OBJ
  6
CONTINUOUS
 10
42.742111795074898
 20
2.193543324951194
 30
0.0
 40
0.0135952901026457
  0
CIRCLE
  5
3FF94
  8
OBJ
  6
CONTINUOUS
 10
42.771156284142741
 20
2.193543324951194
 30
0.0
 40
0.0135952901026457
  0
ARC
  5
3FF95
  8
OBJ
  6
CONTINUOUS
 62
     7
 10
42.82221336633939
 20
2.188451055459474
 30
0.0
 40
0.0398905857996746
 50
18.553004535021518
 51
90.0
  0
LINE
  5
3FF96
  8
OBJ
  6
CONTINUOUS
 62
     7
 10
42.860030826817017
 20
2.201143514577562
 30
0.0
 11
42.888697676005521
 21
2.201143514577562
 31
0.0
  0
ARC
  5
3FF97
  8
OBJ
  6
CONTINUOUS
 62
     7
 10
42.82221336633939
 20
2.134054802096288
 30
0.0
 40
0.0398905857996746
 50
270.0
 51
341.44699546497878
  0
CIRCLE
  5
3FF98
  8
OBJ
  6
CONTINUOUS
 10
42.888697676005521
 20
2.1612529287778841
 30
0.0
 40
0.0156178499896015
  0
LINE
  5
3FF99
  8
OBJ
  6
CONTINUOUS
 62
     7
 10
42.860030826817017
 20
2.1213623429782098
 30
0.0
 11
42.888697676005521
 21
2.1213623429782098
 31
0.0
  0
ARC
  5
3FF9A
  8
OBJ
  6
CONTINUOUS
 62
     7
 10
42.888697676005521
 20
2.1612529287778841
 30
0.0
 40
0.0398905857996746
 50
270.0
 51
90.0
  0
CIRCLE
  5
3FF9B
  8
OBJ
  6
CONTINUOUS
 62
     7
 10
43.028919129119522
 20
2.055482436127229
 30
0.0
 40
0.0212447589524025
  0
CIRCLE
  5
3FF9C
  8
OBJ
  6
CONTINUOUS
 62
     7
 10
43.119579551391517
 20
2.055482436127229
 30
0.0
 40
0.0212447589524025
  0
LINE
  5
3FF9D
  8
OBJ
  6
CONTINUOUS
 62
     7
 10
42.945813742036862
 20
2.1098786894904231
 30
0.0
 11
42.945813742036862
 21
2.2156491821410791
 31
0.0
  0
ARC
  5
3FF9E
  8
OBJ
  6
CONTINUOUS
 62
     7
 10
42.589518282507953
 20
2.1612529287778841
 30
0.0
 40
0.0398905857996746
 50
90.0
 51
270.0
  0
LINE
  5
3FF9F
  8
OBJ
  6
CONTINUOUS
 62
     7
 10
42.589518282507953
 20
2.201143514577562
 30
0.0
 11
42.61818513169645
 21
2.201143514577562
 31
0.0
  0
LINE
  5
3FFA0
  8
OBJ
  6
CONTINUOUS
 62
     7
 10
42.589518282507953
 20
2.1213623429782098
 30
0.0
 11
42.61818513169645
 21
2.1213623429782098
 31
0.0
  0
CIRCLE
  5
3FFA1
  8
OBJ
  6
CONTINUOUS
 10
42.589518282507953
 20
2.1612529287778841
 30
0.0
 40
0.0156178499896015
  0
LINE
  5
3FFA2
  8
OBJ
  6
CONTINUOUS
 62
     7
 10
42.793957534731291
 20
2.556381269179961
 30
0.0
 11
43.022799550616163
 21
2.6311761175543511
 31
0.0
  0
LINE
  5
3FFA3
  8
OBJ
  6
CONTINUOUS
 62
     7
 10
42.793957534731291
 20
2.5563812691799681
 30
0.0
 11
42.793957534731291
 21
2.487932650364614
 31
0.0
  0
CIRCLE
  5
3FFA4
  8
OBJ
  6
CONTINUOUS
 62
     7
 10
43.554749578297063
 20
2.055482436127229
 30
0.0
 40
0.0212447589524025
  0
CIRCLE
  5
3FFA5
  8
OBJ
  6
CONTINUOUS
 62
     7
 10
43.899259182930606
 20
2.055482436127229
 30
0.0
 40
0.0212447589524025
  0
CIRCLE
  5
3FFA6
  8
OBJ
  6
CONTINUOUS
 62
     7
 10
43.808598760658612
 20
2.055482436127229
 30
0.0
 40
0.0212447589524025
  0
CIRCLE
  5
3FFA7
  8
OBJ
  6
CONTINUOUS
 62
     7
 10
43.717938338386631
 20
2.055482436127229
 30
0.0
 40
0.0212447589524025
  0
CIRCLE
  5
3FFA8
  8
OBJ
  6
CONTINUOUS
 62
     7
 10
44.062447943020182
 20
2.055482436127229
 30
0.0
 40
0.0212447589524025
  0
CIRCLE
  5
3FFA9
  8
OBJ
  6
CONTINUOUS
 62
     7
 10
43.373428733753073
 20
2.055482436127229
 30
0.0
 40
0.0212447589524025
  0
CIRCLE
  5
3FFAA
  8
OBJ
  6
CONTINUOUS
 62
     7
 10
43.464089156025047
 20
2.055482436127229
 30
0.0
 40
0.0212447589524025
  0
CIRCLE
  5
3FFAB
  8
OBJ
  6
CONTINUOUS
 62
     7
 10
44.243768787564143
 20
2.055482436127229
 30
0.0
 40
0.0212447589524025
  0
CIRCLE
  5
3FFAC
  8
OBJ
  6
CONTINUOUS
 62
     7
 10
44.153108365292169
 20
2.055482436127229
 30
0.0
 40
0.0212447589524025
  0
LINE
  5
3FFAD
  8
OBJ
  6
CONTINUOUS
 62
     7
 10
44.460447196794213
 20
2.6311761175543511
 30
0.0
 11
43.31842807757473
 21
2.6311761175543511
 31
0.0
  0
ARC
  5
3FFAE
  8
OBJ
  6
CONTINUOUS
 62
     7
 10
43.285034822037879
 20
2.5563812691799561
 30
0.0
 40
0.0333932555368488
 50
180.0
 51
0.0
  0
LINE
  5
3FFAF
  8
OBJ
  6
CONTINUOUS
 62
     7
 10
43.251641566501043
 20
2.556381269179961
 30
0.0
 11
43.251641566501043
 21
2.6311761175543511
 31
0.0
  0
LINE
  5
3FFB0
  8
OBJ
  6
CONTINUOUS
 62
     7
 10
43.31842807757473
 20
2.556381269179961
 30
0.0
 11
43.31842807757473
 21
2.6311761175543511
 31
0.0
  0
LINE
  5
3FFB1
  8
OBJ
  6
CONTINUOUS
 62
     7
 10
44.75607572375278
 20
2.6311761175543622
 30
0.0
 11
44.5272337078679
 21
2.6311761175543622
 31
0.0
  0
ARC
  5
3FFB2
  8
OBJ
  6
CONTINUOUS
 62
     7
 10
44.49384045233105
 20
2.5563812691799561
 30
0.0
 40
0.0333932555368488
 50
180.0
 51
0.0
  0
LINE
  5
3FFB3
  8
OBJ
  6
CONTINUOUS
 62
     7
 10
44.460447196794213
 20
2.556381269179961
 30
0.0
 11
44.460447196794213
 21
2.6311761175543511
 31
0.0
  0
LINE
  5
3FFB4
  8
OBJ
  6
CONTINUOUS
 62
     7
 10
44.5272337078679
 20
2.556381269179961
 30
0.0
 11
44.5272337078679
 21
2.6311761175543622
 31
0.0
  0
LINE
  5
3FFB5
  8
OBJ
  6
CONTINUOUS
 62
     7
 10
45.475995026944261
 20
0.5895034079892004
 30
0.0
 11
45.475995026944261
 21
2.487932650364614
 31
0.0
  0
LINE
  5
3FFB6
  8
OBJ
  6
CONTINUOUS
 62
     7
 10
45.438219850997598
 20
0.8632978832505919
 30
0.0
 11
45.438219850997598
 21
2.2609793932770681
 31
0.0
  0
LINE
  5
3FFB7
  8
OBJ
  6
CONTINUOUS
 10
45.338263118631332
 20
1.0752095928189509
 30
0.0
 11
45.375806499441083
 21
1.0968852738357491
 31
0.0
  0
CIRCLE
  5
3FFB8
  8
OBJ
  6
CONTINUOUS
 62
     7
 10
45.338263118631332
 20
1.1185609548525499
 30
0.0
 40
0.0779075228723947
  0
LINE
  5
3FFB9
  8
OBJ
  6
CONTINUOUS
 10
45.300719737821581
 20
1.0968852738357491
 30
0.0
 11
45.338263118631332
 21
1.0752095928189509
 31
0.0
  0
LINE
  5
3FFBA
  8
0
 10
45.338263118631332
 20
1.040653431980155
 30
0.0
 11
45.338263118631332
 21
-0.5792803577375773
 31
0.0
  0
LINE
  5
3FFBB
  8
OBJ
  6
CONTINUOUS
 10
45.208567046483388
 20
1.0277915446141881
 30
0.0
 11
45.208567046483388
 21
1.088242448970838
 31
0.0
  0
LINE
  5
3FFBC
  8
OBJ
  6
CONTINUOUS
 10
45.090699978100709
 20
1.088242448970838
 30
0.0
 11
45.090699978100709
 21
1.0277915446141961
 31
0.0
  0
TEXT
  5
3FFBD
  8
OBJ
  6
CONTINUOUS
 10
45.112917987700357
 20
1.035748250073063
 30
0.0
 40
0.05
  1
LO
  7
SIMPLEX
  0
CIRCLE
  5
3FFBE
  8
OBJ
  6
CONTINUOUS
 39
0.5282410363257157
 10
45.375196024167678
 20
-1.602727921689677
 30
0.0
 40
0.0093714308432137
  0
LINE
  5
3FFBF
  8
OBJ
  6
CONTINUOUS
 39
0.5282410363257157
 10
45.148612900563997
 20
-0.5575653449581504
 30
0.0
 11
45.127528444201729
 21
-0.5364808885958832
 31
0.0
  0
CIRCLE
  5
3FFC0
  8
OBJ
  6
CONTINUOUS
 39
0.5282410363257157
 10
44.986362108307183
 20
-1.741036078405046
 30
0.0
 40
0.0093714308432137
  0
LINE
  5
3FFC1
  8
0
 10
45.338263118631332
 20
-0.6598341943697755
 30
0.0
 11
45.338263118631332
 21
-1.6291436381305151
 31
0.0
  0
LINE
  5
3FFC2
  8
0
 10
45.148480634675309
 20
-0.6598341943697755
 30
0.0
 11
45.148480634675309
 21
-1.6291436381305151
 31
0.0
  0
LINE
  5
3FFC3
  8
0
 10
45.622587881539097
 20
-1.457032971953665
 30
0.0
 11
45.622587881539097
 21
-2.1219009007946421
 31
0.0
  0
TEXT
  5
3FFC4
  8
OBJ
  6
CONTINUOUS
 10
45.704456306376812
 20
-1.5909284881531109
 30
0.0
 40
0.0661329443497673
  1
LINE
  0
LINE
  5
3FFC5
  8
OBJ
  6
CONTINUOUS
 10
45.338263118631332
 20
-1.1672127854698819
 30
0.0
 11
45.338263118631332
 21
-1.5231784139835229
 31
0.0
  0
ARC
  5
3FFC6
  8
0
 10
45.290817497642323
 20
-1.6308866148335071
 30
0.0
 40
0.0474456209890022
 50
180.0
 51
0.0
  0
LINE
  5
3FFC7
  8
OBJ
  6
CONTINUOUS
 10
45.338263118631332
 20
-1.498975211942863
 30
0.0
 11
45.338263118631332
 21
-1.6291436381305131
 31
0.0
  0
LINE
  5
3FFC8
  8
OBJ
  6
CONTINUOUS
 10
45.148480634675309
 20
-1.498975211942863
 30
0.0
 11
45.148480634675309
 21
-1.6291436381305131
 31
0.0
  0
ARC
  5
3FFC9
  8
0
 10
45.195926255664311
 20
-1.6308866148335071
 30
0.0
 40
0.0474456209890022
 50
180.0
 51
0.0
  0
LINE
  5
3FFCA
  8
OBJ
  6
CONTINUOUS
 10
45.338263118631332
 20
1.0262386111406601
 30
0.0
 11
45.338263118631332
 21
-0.5792803577375773
 31
0.0
  0
LINE
  5
3FFCB
  8
0
 10
45.148480634675309
 20
0.8408709480241169
 30
0.0
 11
45.148480634675309
 21
-0.5792803577375773
 31
0.0
  0
LINE
  5
3FFCE
  8
OBJ
  6
CONTINUOUS
 10
45.309783036564731
 20
-0.5910771939870722
 30
0.0
 11
45.366743200697947
 21
-0.6480373581202948
 31
0.0
  0
CIRCLE
  5
3FFCF
  8
OBJ
  6
CONTINUOUS
 10
45.338263118631332
 20
-0.6195572760536763
 30
0.0
 40
0.0402769183160991
  0
LINE
  5
3FFD0
  8
OBJ
  6
CONTINUOUS
 10
45.415352799081909
 20
-0.705528119030177
 30
0.0
 11
45.415352799081887
 21
-0.4966545635655822
 31
0.0
  0
CIRCLE
  5
3FFD1
  8
OBJ
  6
CONTINUOUS
 10
45.148480634675309
 20
-0.6195572760536763
 30
0.0
 40
0.0402769183160991
  0
LINE
  5
3FFD2
  8
OBJ
  6
CONTINUOUS
 10
45.120000552608708
 20
-0.5910771939870722
 30
0.0
 11
45.176960716741931
 21
-0.6480373581202948
 31
0.0
  0
POINT
  5
3FFD3
  8
OBJ
  6
BYBLOCK
 62
     0
 10
45.475995026944261
 20
0.5895034079892004
 30
0.0
  0
LINE
  5
3FFD4
  8
OBJ
  6
CONTINUOUS
 62
     7
 10
44.984917739637659
 20
0.5895034079892004
 30
0.0
 11
44.984917739637659
 21
0.5210547891738431
 31
0.0
  0
ARC
  5
3FFD5
  8
OBJ
  6
CONTINUOUS
 62
     7
 10
45.362669499104278
 20
0.8632978832505919
 30
0.0
 40
0.0755503518933231
 50
270.0
 51
0.0
  0
ARC
  5
3FFD6
  8
OBJ
  6
CONTINUOUS
 10
45.102788034403638
 20
1.0277915446141961
 30
0.0
 40
0.0120880563029317
 50
180.0
 51
269.99999999999972
  0
ARC
  5
3FFD7
  8
OBJ
  6
CONTINUOUS
 10
45.196478990180452
 20
1.0277915446141881
 30
0.0
 40
0.0120880563029317
 50
270.0
 51
0.0
  0
LINE
  5
3FFD8
  8
OBJ
  6
CONTINUOUS
 10
45.148480634675309
 20
0.9621298329301133
 30
0.0
 11
45.110937253865551
 21
0.9404541519133121
 31
0.0
  0
LINE
  5
3FFD9
  8
OBJ
  6
CONTINUOUS
 10
45.18602401548506
 20
0.9404541519133121
 30
0.0
 11
45.148480634675309
 21
0.9621298329301133
 31
0.0
  0
LINE
  5
3FFDA
  8
OBJ
  6
CONTINUOUS
 10
45.102788034403638
 20
1.0157034883112579
 30
0.0
 11
45.196478990180452
 21
1.0157034883112579
 31
0.0
  0
LINE
  5
3FFDB
  8
OBJ
  6
CONTINUOUS
 10
45.110937253865551
 20
0.8971027898797157
 30
0.0
 11
45.148480634675309
 21
0.8754271088629198
 31
0.0
  0
LINE
  5
3FFDC
  8
OBJ
  6
CONTINUOUS
 10
45.148480634675309
 20
0.8754271088629198
 30
0.0
 11
45.18602401548506
 21
0.8971027898797157
 31
0.0
  0
LINE
  5
3FFDD
  8
OBJ
  6
CONTINUOUS
 10
45.18602401548506
 20
0.8971027898797157
 30
0.0
 11
45.18602401548506
 21
0.9404541519133121
 31
0.0
  0
LINE
  5
3FFDE
  8
OBJ
  6
CONTINUOUS
 10
45.110937253865551
 20
0.9404541519133121
 30
0.0
 11
45.110937253865551
 21
0.8971027898797157
 31
0.0
  0
CIRCLE
  5
3FFDF
  8
OBJ
  6
CONTINUOUS
 10
45.148480634675309
 20
0.9187784708965116
 30
0.0
 40
0.028168665929907
  0
CIRCLE
  5
3FFE0
  8
OBJ
  6
CONTINUOUS
 62
     7
 10
45.148480634675309
 20
0.9187784708965116
 30
0.0
 40
0.0779075228723947
  0
LINE
  5
3FFE1
  8
OBJ
  6
HIDDEN
 62
     7
 10
45.127707904716047
 20
1.8711395775075199
 30
0.0
 11
45.127707904716047
 21
2.0675704924301659
 31
0.0
  0
LINE
  5
3FFE2
  8
OBJ
  6
CONTINUOUS
 62
     7
 10
45.112597834337379
 20
1.8552740036099229
 30
0.0
 11
45.112597834337379
 21
2.0592599537219032
 31
0.0
  0
CIRCLE
  5
3FFE3
  8
OBJ
  6
CONTINUOUS
 62
     7
 10
45.095221253401917
 20
1.5387180291769
 30
0.0
 40
0.0944379398666538
  0
TEXT
  5
3FFE4
  8
OBJ
  6
CONTINUOUS
 10
45.302700471656387
 20
1.225530734029102
 30
0.0
 40
0.05
  1
HI
  7
SIMPLEX
  0
LINE
  5
3FFE5
  8
OBJ
  6
CONTINUOUS
 10
45.292570518359668
 20
1.205485972267297
 30
0.0
 11
45.386261474136489
 21
1.205485972267297
 31
0.0
  0
LINE
  5
3FFE6
  8
OBJ
  6
CONTINUOUS
 10
45.386261474136489
 20
1.2901129892298071
 30
0.0
 11
45.292570518359668
 21
1.2901129892298071
 31
0.0
  0
LINE
  5
3FFE7
  8
OBJ
  6
CONTINUOUS
 10
45.375806499441083
 20
1.1402366358693481
 30
0.0
 11
45.338263118631332
 21
1.161912316886146
 31
0.0
  0
CIRCLE
  5
3FFE8
  8
OBJ
  6
CONTINUOUS
 10
45.338263118631332
 20
1.1185609548525499
 30
0.0
 40
0.028168665929907
  0
LINE
  5
3FFE9
  8
OBJ
  6
CONTINUOUS
 10
45.338263118631332
 20
1.161912316886146
 30
0.0
 11
45.300719737821581
 21
1.1402366358693481
 31
0.0
  0
LINE
  5
3FFEA
  8
OBJ
  6
CONTINUOUS
 10
45.280482462056732
 20
1.2780249329268769
 30
0.0
 11
45.280482462056732
 21
1.217574028570235
 31
0.0
  0
ARC
  5
3FFEB
  8
OBJ
  6
CONTINUOUS
 10
45.292570518359668
 20
1.217574028570235
 30
0.0
 40
0.0120880563029317
 50
180.0
 51
269.99999999999972
  0
ARC
  5
3FFEC
  8
OBJ
  6
CONTINUOUS
 10
45.292570518359668
 20
1.2780249329268769
 30
0.0
 40
0.0120880563029317
 50
90.0
 51
180.0
  0
LINE
  5
3FFED
  8
OBJ
  6
CONTINUOUS
 10
45.300719737821581
 20
1.1402366358693481
 30
0.0
 11
45.300719737821581
 21
1.0968852738357491
 31
0.0
  0
LINE
  5
3FFEE
  8
OBJ
  6
CONTINUOUS
 10
45.398349530439418
 20
1.217574028570227
 30
0.0
 11
45.398349530439418
 21
1.2780249329268769
 31
0.0
  0
ARC
  5
3FFEF
  8
OBJ
  6
CONTINUOUS
 10
45.386261474136489
 20
1.217574028570227
 30
0.0
 40
0.0120880563029317
 50
270.0
 51
0.0
  0
ARC
  5
3FFF0
  8
OBJ
  6
CONTINUOUS
 10
45.386261474136489
 20
1.2780249329268769
 30
0.0
 40
0.0120880563029317
 50
0.0
 51
90.0
  0
LINE
  5
3FFF1
  8
OBJ
  6
CONTINUOUS
 10
45.375806499441083
 20
1.0968852738357491
 30
0.0
 11
45.375806499441083
 21
1.1402366358693481
 31
0.0
  0
LINE
  5
3FFF2
  8
OBJ
  6
CONTINUOUS
 10
45.092497180773833
 20
1.19081538376862
 30
0.0
 11
45.204464088576771
 21
1.19081538376862
 31
0.0
  0
LINE
  5
3FFF3
  8
OBJ
  6
CONTINUOUS
 10
45.204464088576771
 20
1.318400485718483
 30
0.0
 11
45.092497180773833
 21
1.318400485718483
 31
0.0
  0
ARC
  5
3FFF4
  8
OBJ
  6
CONTINUOUS
 10
45.102788034403638
 20
1.088242448970838
 30
0.0
 40
0.0120880563029317
 50
90.0
 51
180.0
  0
ARC
  5
3FFF5
  8
OBJ
  6
CONTINUOUS
 10
45.092497180773833
 20
1.202903440071553
 30
0.0
 40
0.0120880563029317
 50
180.0
 51
270.0
  0
ARC
  5
3FFF6
  8
OBJ
  6
CONTINUOUS
 10
45.092497180773833
 20
1.306312429415545
 30
0.0
 40
0.0120880563029317
 50
90.0
 51
180.0
  0
LINE
  5
3FFF7
  8
OBJ
  6
CONTINUOUS
 10
45.080409124470883
 20
1.306312429415553
 30
0.0
 11
45.080409124470883
 21
1.202903440071553
 31
0.0
  0
ARC
  5
3FFF8
  8
OBJ
  6
CONTINUOUS
 10
45.006696506224429
 20
1.2780249329268769
 30
0.0
 40
0.0120880563029317
 50
0.0
 51
90.0
  0
ARC
  5
3FFF9
  8
OBJ
  6
CONTINUOUS
 10
45.006696506224429
 20
1.217574028570227
 30
0.0
 40
0.0120880563029317
 50
270.0
 51
0.0
  0
LINE
  5
3FFFA
  8
OBJ
  6
CONTINUOUS
 10
45.018784562527358
 20
1.217574028570227
 30
0.0
 11
45.018784562527358
 21
1.2780249329268769
 31
0.0
  0
LINE
  5
3FFFB
  8
OBJ
  6
CONTINUOUS
 10
44.995939330121459
 20
1.0968852738357491
 30
0.0
 11
44.995939330121459
 21
1.1402366358693481
 31
0.0
  0
ARC
  5
3FFFC
  8
OBJ
  6
CONTINUOUS
 10
45.204464088576771
 20
1.202903440071553
 30
0.0
 40
0.0120880563029317
 50
270.0
 51
0.0
  0
ARC
  5
3FFFD
  8
OBJ
  6
CONTINUOUS
 10
45.204464088576771
 20
1.306312429415553
 30
0.0
 40
0.0120880563029317
 50
0.0
 51
90.0
  0
LINE
  5
3FFFE
  8
OBJ
  6
CONTINUOUS
 10
45.216552144879721
 20
1.202903440071553
 30
0.0
 11
45.216552144879721
 21
1.306312429415553
 31
0.0
  0
TEXT
  5
3FFFF
  8
OBJ
  6
CONTINUOUS
 10
45.117432911239398
 20
1.227747979935077
 30
0.0
 40
0.0568138646237789
  1
In
  7
SIMPLEX
  0
ARC
  5
40000
  8
OBJ
  6
CONTINUOUS
 10
45.196478990180452
 20
1.088242448970838
 30
0.0
 40
0.0120880563029317
 50
0.0
 51
90.0
  0
LINE
  5
40001
  8
OBJ
  6
CONTINUOUS
 10
45.196478990180452
 20
1.100330505273768
 30
0.0
 11
45.102788034403638
 21
1.100330505273768
 31
0.0
  0
LINE
  5
40002
  8
OBJ
  6
CONTINUOUS
 10
45.148480634675309
 20
1.101433771634039
 30
0.0
 11
45.148480634675309
 21
1.19081538376862
 31
0.0
  0
ARC
  5
40003
  8
OBJ
  6
HIDDEN
 62
     7
 10
45.238313619887847
 20
1.757814049667537
 30
0.0
 40
0.0398905857996746
 50
270.0
 51
90.0
  0
LINE
  5
40004
  8
OBJ
  6
HIDDEN
 62
     7
 10
45.171829310221739
 20
1.6907253371862681
 30
0.0
 11
45.005618536056417
 21
1.6907253371862681
 31
0.0
  0
LINE
  5
40005
  8
OBJ
  6
HIDDEN
 62
     7
 10
45.171829310221739
 20
1.8249027621488141
 30
0.0
 11
45.005618536056417
 21
1.8249027621488141
 31
0.0
  0
ARC
  5
40006
  8
OBJ
  6
HIDDEN
 62
     7
 10
45.005618536056417
 20
1.7306159229859419
 30
0.0
 40
0.0398905857996746
 50
198.5530045350211
 51
270.0
  0
ARC
  5
40007
  8
OBJ
  6
HIDDEN
 62
     7
 10
45.005618536056417
 20
1.7850121763491349
 30
0.0
 40
0.0398905857996746
 50
90.0
 51
161.44699546497839
  0
ARC
  5
40008
  8
OBJ
  6
HIDDEN
 62
     7
 10
45.171829310221739
 20
1.7850121763491349
 30
0.0
 40
0.0398905857996746
 50
18.553004535021518
 51
90.0
  0
ARC
  5
40009
  8
OBJ
  6
HIDDEN
 62
     7
 10
45.171829310221739
 20
1.7306159229859419
 30
0.0
 40
0.0398905857996746
 50
270.0
 51
341.44699546497878
  0
CIRCLE
  5
4000A
  8
OBJ
  6
CONTINUOUS
 62
     7
 10
45.197214228457888
 20
1.8741615915832519
 30
0.0
 40
0.0212447589524025
  0
CIRCLE
  5
4000B
  8
OBJ
  6
CONTINUOUS
 62
     7
 10
45.197214228457888
 20
1.9648220138552439
 30
0.0
 40
0.0212447589524025
  0
LINE
  5
4000C
  8
OBJ
  6
HIDDEN
 62
     7
 10
45.209646770699358
 20
1.797704635467217
 30
0.0
 11
45.238313619887847
 21
1.797704635467217
 31
0.0
  0
LINE
  5
4000D
  8
OBJ
  6
HIDDEN
 62
     7
 10
45.209646770699358
 20
1.717923463867866
 30
0.0
 11
45.238313619887847
 21
1.717923463867866
 31
0.0
  0
ARC
  5
4000E
  8
OBJ
  6
CONTINUOUS
 62
     7
 10
45.362669499104278
 20
2.2609793932770681
 30
0.0
 40
0.0755503518933231
 50
0.0
 51
89.999999999999915
  0
CIRCLE
  5
4000F
  8
OBJ
  6
CONTINUOUS
 62
     7
 10
45.197214228457888
 20
2.055482436127229
 30
0.0
 40
0.0212447589524025
  0
LINE
  5
40010
  8
OBJ
  6
CONTINUOUS
 62
     7
 10
45.112597834337379
 20
2.215649182141072
 30
0.0
 11
45.112597834337379
 21
2.1098786894904231
 31
0.0
  0
CIRCLE
  5
40011
  8
OBJ
  6
CONTINUOUS
 62
     7
 10
45.197214228457888
 20
2.1627639358157511
 30
0.0
 40
0.0330608339885182
  0
POINT
  5
40012
  8
OBJ
  6
BYBLOCK
 62
     0
 10
45.475995026944261
 20
2.487932650364614
 30
0.0
  0
LINE
  5
40013
  8
OBJ
  6
CONTINUOUS
 62
     7
 10
44.984917739637659
 20
2.5563812691799681
 30
0.0
 11
44.984917739637659
 21
2.487932650364614
 31
0.0
  0
LINE
  5
40014
  8
OBJ
  6
CONTINUOUS
 39
1.4579572651114241
 10
46.452940127955898
 20
-2.4632786942621112
 30
0.0
 11
49.765046314059262
 21
-2.4632786942621112
 31
0.0
  0
LINE
  5
40016
  8
OBJ
  6
CONTINUOUS
 39
1.4579572651114241
 10
49.778617700845878
 20
-1.76140952683005
 30
0.0
 11
46.967665207351288
 21
-1.76140952683005
 31
0.0
  0
LINE
  5
40017
  8
OBJ
  6
CONTINUOUS
 39
1.4579572651114241
 10
49.778617700845871
 20
-1.893675415529585
 30
0.0
 11
46.967665207351288
 21
-1.893675415529585
 31
0.0
  0
LINE
  5
40018
  8
OBJ
  6
CONTINUOUS
 39
1.4579572651114241
 10
49.778617700845871
 20
-2.025941304229121
 30
0.0
 11
46.967665207351288
 21
-2.025941304229121
 31
0.0
  0
TEXT
  5
40019
  8
OBJ
  6
CONTINUOUS
 10
47.477625567796657
 20
-2.419110067516129
 30
0.0
 40
0.0686306894350331
  1
3 WIRE : 3 ELEMENT OPEN DIRECT
  7
SIMPLEX
  0
LINE
  5
4001B
  8
OBJ
  6
CONTINUOUS
 62
     7
 10
46.45891006673147
 20
2.487932650364614
 30
0.0
 11
49.632024846251042
 21
2.487932650364614
 31
0.0
  0
LINE
  5
4001C
  8
OBJ
  6
CONTINUOUS
 62
     7
 10
49.518699318411059
 20
2.336529745170397
 30
0.0
 11
46.57223559457146
 21
2.336529745170397
 31
0.0
  0
LINE
  5
4001D
  8
OBJ
  6
CONTINUOUS
 10
48.076495543963553
 20
-0.4966545635655813
 30
0.0
 11
49.571382618388689
 21
-0.4966545635655813
 31
0.0
  0
LINE
  5
4001E
  8
OBJ
  6
CONTINUOUS
 10
48.076495543963553
 20
-0.7055281190301788
 30
0.0
 11
49.571382618388689
 21
-0.705528119030177
 31
0.0
  0
LINE
  5
40020
  8
OBJ
  6
CONTINUOUS
 62
     7
 10
46.45891006673147
 20
0.589503407989195
 30
0.0
 11
49.632024846251042
 21
0.589503407989195
 31
0.0
  0
LINE
  5
40021
  8
OBJ
  6
CONTINUOUS
 62
     7
 10
46.572235594571453
 20
0.7877475313572706
 30
0.0
 11
49.518699318411059
 21
0.7877475313572706
 31
0.0
  0
CIRCLE
  5
40022
  8
OBJ
  6
CONTINUOUS
 62
     7
 10
49.114425768618489
 20
1.118560954852551
 30
0.0
 40
0.0779075228723947
  0
LINE
  5
40023
  8
OBJ
  6
CONTINUOUS
 10
49.114425768618489
 20
1.07520959281895
 30
0.0
 11
49.151969149428247
 21
1.0968852738357491
 31
0.0
  0
LINE
  5
40024
  8
OBJ
  6
CONTINUOUS
 39
0.5282410363257157
 10
48.94529327372846
 20
-0.5364808885958823
 30
0.0
 11
49.283558263508517
 21
-0.5364808885958841
 31
0.0
  0
LINE
  5
40025
  8
OBJ
  6
CONTINUOUS
 10
49.085945686551888
 20
-0.5910771939870722
 30
0.0
 11
49.142905850685104
 21
-0.6480373581202948
 31
0.0
  0
CIRCLE
  5
40026
  8
OBJ
  6
CONTINUOUS
 10
49.114425768618489
 20
-0.6195572760536763
 30
0.0
 40
0.0402769183160991
  0
LINE
  5
40027
  8
OBJ
  6
CONTINUOUS
 62
     7
 10
49.140947558944447
 20
0.5210547891738422
 30
0.0
 11
48.91210554305956
 21
0.4462599407994468
 31
0.0
  0
TEXT
  5
40028
  8
OBJ
  6
CONTINUOUS
 10
49.079165323051122
 20
1.225530734029102
 30
0.0
 40
0.05
  1
HI
  7
SIMPLEX
  0
CIRCLE
  5
40029
  8
OBJ
  6
CONTINUOUS
 10
49.114425768618489
 20
1.118560954852551
 30
0.0
 40
0.028168665929907
  0
LINE
  5
4002A
  8
OBJ
  6
CONTINUOUS
 10
49.069035369754403
 20
1.205485972267297
 30
0.0
 11
49.16272632553121
 21
1.205485972267297
 31
0.0
  0
LINE
  5
4002B
  8
OBJ
  6
CONTINUOUS
 10
49.16272632553121
 20
1.2901129892298071
 30
0.0
 11
49.069035369754403
 21
1.2901129892298071
 31
0.0
  0
LINE
  5
4002C
  8
OBJ
  6
CONTINUOUS
 10
49.151969149428247
 20
1.1402366358693481
 30
0.0
 11
49.114425768618489
 21
1.161912316886146
 31
0.0
  0
LINE
  5
4002D
  8
OBJ
  6
HIDDEN
 62
     7
 10
49.095164045697068
 20
1.717923463867866
 30
0.0
 11
49.123830894885579
 21
1.717923463867866
 31
0.0
  0
LINE
  5
4002E
  8
OBJ
  6
HIDDEN
 62
     7
 10
49.095164045697068
 20
1.797704635467217
 30
0.0
 11
49.123830894885579
 21
1.797704635467217
 31
0.0
  0
LINE
  5
4002F
  8
OBJ
  6
CONTINUOUS
 62
     7
 10
49.102416879478838
 20
1.8552740036099229
 30
0.0
 11
49.26862765364416
 21
1.8552740036099229
 31
0.0
  0
LINE
  5
40030
  8
OBJ
  6
HIDDEN
 62
     7
 10
49.08730680910017
 20
1.8711395775075199
 30
0.0
 11
49.283737724022828
 21
1.8711395775075199
 31
0.0
  0
LINE
  5
40031
  8
OBJ
  6
CONTINUOUS
 62
     7
 10
47.101843561343649
 20
2.1098786894904231
 30
0.0
 11
49.26862765364416
 21
2.1098786894904231
 31
0.0
  0
LINE
  5
40032
  8
OBJ
  6
CONTINUOUS
 62
     7
 10
47.101843561343649
 20
2.2156491821410791
 30
0.0
 11
49.26862765364416
 21
2.215649182141072
 31
0.0
  0
LINE
  5
40033
  8
OBJ
  6
HIDDEN
 62
     7
 10
49.283737724022828
 20
2.0675704924301659
 30
0.0
 11
49.08730680910017
 21
2.0675704924301659
 31
0.0
  0
LINE
  5
40034
  8
OBJ
  6
CONTINUOUS
 62
     7
 10
49.102416879478838
 20
2.0592599537219032
 30
0.0
 11
49.26862765364416
 21
2.0592599537219032
 31
0.0
  0
LINE
  5
40035
  8
OBJ
  6
CONTINUOUS
 62
     7
 10
49.140947558944447
 20
2.556381269179961
 30
0.0
 11
48.91210554305956
 21
2.6311761175543622
 31
0.0
  0
LINE
  5
40036
  8
OBJ
  6
CONTINUOUS
 62
     7
 10
49.140947558944447
 20
7.8002877769155212
 30
0.0
 11
48.91210554305956
 21
7.8750826252899211
 31
0.0
  0
LINE
  5
40037
  8
OBJ
  6
CONTINUOUS
 62
     7
 10
49.102416879478838
 20
7.3031664614574616
 30
0.0
 11
49.26862765364416
 21
7.3031664614574616
 31
0.0
  0
LINE
  5
40038
  8
OBJ
  6
HIDDEN
 62
     7
 10
49.283737724022828
 20
7.3114770001657261
 30
0.0
 11
49.08730680910017
 21
7.3114770001657261
 31
0.0
  0
LINE
  5
40039
  8
OBJ
  6
CONTINUOUS
 62
     7
 10
47.101843561343649
 20
7.4595556898766393
 30
0.0
 11
49.26862765364416
 21
7.4595556898766322
 31
0.0
  0
LINE
  5
4003A
  8
OBJ
  6
CONTINUOUS
 62
     7
 10
47.101843561343649
 20
7.3537851972259816
 30
0.0
 11
49.26862765364416
 21
7.3537851972259816
 31
0.0
  0
LINE
  5
4003B
  8
OBJ
  6
HIDDEN
 62
     7
 10
49.08730680910017
 20
7.1150460852430788
 30
0.0
 11
49.283737724022828
 21
7.1150460852430788
 31
0.0
  0
LINE
  5
4003C
  8
OBJ
  6
CONTINUOUS
 62
     7
 10
49.102416879478838
 20
7.099180511345482
 30
0.0
 11
49.26862765364416
 21
7.099180511345482
 31
0.0
  0
LINE
  5
4003D
  8
OBJ
  6
HIDDEN
 62
     7
 10
49.095164045697068
 20
7.0416111432027773
 30
0.0
 11
49.123830894885579
 21
7.0416111432027773
 31
0.0
  0
LINE
  5
4003E
  8
OBJ
  6
HIDDEN
 62
     7
 10
49.095164045697068
 20
6.9618299716034251
 30
0.0
 11
49.123830894885579
 21
6.9618299716034251
 31
0.0
  0
LINE
  5
4003F
  8
OBJ
  6
CONTINUOUS
 10
49.151969149428247
 20
6.3841431436049083
 30
0.0
 11
49.114425768618489
 21
6.405818824621706
 31
0.0
  0
LINE
  5
40040
  8
OBJ
  6
CONTINUOUS
 10
49.16272632553121
 20
6.5340194969653664
 30
0.0
 11
49.069035369754403
 21
6.5340194969653664
 31
0.0
  0
LINE
  5
40041
  8
OBJ
  6
CONTINUOUS
 10
49.069035369754403
 20
6.4493924800028557
 30
0.0
 11
49.16272632553121
 21
6.4493924800028557
 31
0.0
  0
CIRCLE
  5
40042
  8
OBJ
  6
CONTINUOUS
 10
49.114425768618489
 20
6.3624674625881088
 30
0.0
 40
0.028168665929907
  0
TEXT
  5
40043
  8
OBJ
  6
CONTINUOUS
 10
49.079165323051122
 20
6.4694372417646608
 30
0.0
 40
0.05
  1
HI
  7
SIMPLEX
  0
LINE
  5
40044
  8
OBJ
  6
CONTINUOUS
 62
     7
 10
49.140947558944447
 20
5.7649612969094024
 30
0.0
 11
48.91210554305956
 21
5.6901664485350061
 31
0.0
  0
CIRCLE
  5
40045
  8
OBJ
  6
CONTINUOUS
 10
49.114425768618489
 20
4.6243492316818831
 30
0.0
 40
0.0402769183160991
  0
LINE
  5
40046
  8
OBJ
  6
CONTINUOUS
 10
49.085945686551888
 20
4.6528293137484873
 30
0.0
 11
49.142905850685104
 21
4.5958691496152637
 31
0.0
  0
LINE
  5
40047
  8
OBJ
  6
CONTINUOUS
 39
0.5282410363257157
 10
48.94529327372846
 20
4.7074256191396762
 30
0.0
 11
49.283558263508517
 21
4.7074256191396753
 31
0.0
  0
LINE
  5
40048
  8
OBJ
  6
CONTINUOUS
 10
49.114425768618489
 20
6.3191161005545098
 30
0.0
 11
49.151969149428247
 21
6.3407917815713093
 31
0.0
  0
CIRCLE
  5
40049
  8
OBJ
  6
CONTINUOUS
 62
     7
 10
49.114425768618489
 20
6.3624674625881088
 30
0.0
 40
0.0779075228723947
  0
LINE
  5
4004A
  8
OBJ
  6
CONTINUOUS
 62
     7
 10
46.572235594571453
 20
6.031654039092829
 30
0.0
 11
49.518699318411059
 21
6.031654039092829
 31
0.0
  0
LINE
  5
4004B
  8
OBJ
  6
CONTINUOUS
 62
     7
 10
46.45891006673147
 20
5.8334099157247552
 30
0.0
 11
49.632024846251042
 21
5.8334099157247552
 31
0.0
  0
LINE
  5
4004D
  8
OBJ
  6
CONTINUOUS
 10
48.076495543963553
 20
4.5383783887053797
 30
0.0
 11
49.571382618388689
 21
4.5383783887053823
 31
0.0
  0
LINE
  5
4004E
  8
OBJ
  6
CONTINUOUS
 10
48.076495543963553
 20
4.7472519441699781
 30
0.0
 11
49.571382618388689
 21
4.7472519441699781
 31
0.0
  0
LINE
  5
4004F
  8
OBJ
  6
CONTINUOUS
 62
     7
 10
49.518699318411059
 20
7.5804362529059572
 30
0.0
 11
46.57223559457146
 21
7.5804362529059572
 31
0.0
  0
LINE
  5
40050
  8
OBJ
  6
CONTINUOUS
 62
     7
 10
46.45891006673147
 20
7.7318391581001729
 30
0.0
 11
49.632024846251042
 21
7.7318391581001729
 31
0.0
  0
TEXT
  5
40052
  8
OBJ
  6
CONTINUOUS
 10
47.113108100169441
 20
2.8247964402194299
 30
0.0
 40
0.0686306894350331
  1
3 WIRE : 3 ELEMENT OPEN DELTA
  7
SIMPLEX
  0
LINE
  5
40053
  8
OBJ
  6
CONTINUOUS
 39
1.4579572651114241
 10
49.778617700845871
 20
3.2179652035064361
 30
0.0
 11
46.967665207351288
 21
3.2179652035064361
 31
0.0
  0
LINE
  5
40054
  8
OBJ
  6
CONTINUOUS
 39
1.4579572651114241
 10
49.778617700845871
 20
3.3502310922059721
 30
0.0
 11
46.967665207351288
 21
3.3502310922059721
 31
0.0
  0
LINE
  5
40055
  8
OBJ
  6
CONTINUOUS
 39
1.4579572651114241
 10
49.778617700845878
 20
3.4824969809055091
 30
0.0
 11
46.967665207351288
 21
3.4824969809055082
 31
0.0
  0
LINE
  5
40057
  8
OBJ
  6
CONTINUOUS
 39
1.4579572651114241
 10
46.452940127955898
 20
2.7806278134734481
 30
0.0
 11
49.765046314059262
 21
2.7806278134734481
 31
0.0
  0
LINE
  5
40058
  8
OBJ
  6
CONTINUOUS
 62
     7
 10
46.45891006673147
 20
5.8334099157247552
 30
0.0
 11
46.45891006673147
 21
7.7318391581001729
 31
0.0
  0
LINE
  5
40059
  8
OBJ
  6
CONTINUOUS
 62
     7
 10
46.496685242678133
 20
6.1072043909861513
 30
0.0
 11
46.496685242678133
 21
7.504885901012627
 31
0.0
  0
LINE
  5
4005A
  8
OBJ
  6
CONTINUOUS
 62
     7
 10
46.51866455866174
 20
6.1373045018295791
 30
0.0
 11
46.51866455866174
 21
6.4153297967970042
 31
0.0
  0
LINE
  5
4005B
  8
OBJ
  6
CONTINUOUS
 62
     7
 10
46.87484418175849
 20
6.1373045018295791
 30
0.0
 11
46.87484418175849
 21
6.4153297967970042
 31
0.0
  0
LINE
  5
4005C
  8
OBJ
  6
CONTINUOUS
 62
     7
 10
46.691444795417517
 20
6.1389124693296289
 30
0.0
 11
46.691444795417517
 21
6.4169377642970531
 31
0.0
  0
LINE
  5
4005D
  8
OBJ
  6
CONTINUOUS
 62
     7
 10
47.24868134533817
 20
6.1373045018295791
 30
0.0
 11
47.24868134533817
 21
6.4153297967970042
 31
0.0
  0
LINE
  5
4005E
  8
OBJ
  6
CONTINUOUS
 62
     7
 10
47.055157804095373
 20
6.1373045018295791
 30
0.0
 11
47.055157804095373
 21
6.4153297967970042
 31
0.0
  0
LINE
  5
4005F
  8
OBJ
  6
CONTINUOUS
 62
     7
 10
47.619440889994912
 20
6.1373045018295791
 30
0.0
 11
47.619440889994912
 21
6.4153297967970042
 31
0.0
  0
LINE
  5
40060
  8
OBJ
  6
CONTINUOUS
 62
     7
 10
47.435689907649817
 20
6.1373045018295791
 30
0.0
 11
47.435689907649817
 21
6.4153297967970042
 31
0.0
  0
CIRCLE
  5
40061
  8
OBJ
  6
CONTINUOUS
 62
     7
 10
48.355598034201961
 20
6.3624674625881088
 30
0.0
 40
0.0779075228723947
  0
LINE
  5
40062
  8
OBJ
  6
CONTINUOUS
 62
     7
 10
47.972942908155467
 20
6.1373045018295791
 30
0.0
 11
47.972942908155467
 21
6.4153297967970042
 31
0.0
  0
LINE
  5
40063
  8
OBJ
  6
CONTINUOUS
 62
     7
 10
47.796677029160222
 20
6.1373045018295791
 30
0.0
 11
47.796677029160222
 21
6.4153297967970042
 31
0.0
  0
LINE
  5
40064
  8
OBJ
  6
CONTINUOUS
 10
48.318054653392188
 20
6.3407917815713093
 30
0.0
 11
48.355598034201947
 21
6.3191161005545098
 31
0.0
  0
LINE
  5
40065
  8
OBJ
  6
CONTINUOUS
 10
48.355598034201947
 20
6.3191161005545098
 30
0.0
 11
48.393141415011691
 21
6.3407917815713093
 31
0.0
  0
LINE
  5
40066
  8
OBJ
  6
CONTINUOUS
 10
48.22590196205401
 20
6.2716980523497483
 30
0.0
 11
48.22590196205401
 21
6.3321489567063969
 31
0.0
  0
TEXT
  5
40067
  8
OBJ
  6
CONTINUOUS
 10
48.130252903270978
 20
6.2796547578086219
 30
0.0
 40
0.05
  1
LO
  7
SIMPLEX
  0
LINE
  5
40068
  8
OBJ
  6
CONTINUOUS
 10
48.108034893671331
 20
6.3321489567063969
 30
0.0
 11
48.108034893671331
 21
6.2716980523497554
 31
0.0
  0
CIRCLE
  5
40069
  8
OBJ
  6
CONTINUOUS
 62
     7
 10
48.735163002114007
 20
6.3624674625881088
 30
0.0
 40
0.0779075228723947
  0
LINE
  5
4006A
  8
OBJ
  6
CONTINUOUS
 10
48.735163002114007
 20
6.3191161005545098
 30
0.0
 11
48.772706382923758
 21
6.3407917815713093
 31
0.0
  0
LINE
  5
4006B
  8
OBJ
  6
CONTINUOUS
 10
48.605466929966063
 20
6.2716980523497483
 30
0.0
 11
48.605466929966063
 21
6.3321489567063969
 31
0.0
  0
TEXT
  5
4006C
  8
OBJ
  6
CONTINUOUS
 10
48.509817871183017
 20
6.2796547578086219
 30
0.0
 40
0.05
  1
LO
  7
SIMPLEX
  0
LINE
  5
4006D
  8
OBJ
  6
CONTINUOUS
 10
48.487599861583369
 20
6.3321489567063969
 30
0.0
 11
48.487599861583369
 21
6.2716980523497554
 31
0.0
  0
LINE
  5
4006E
  8
OBJ
  6
CONTINUOUS
 10
48.697619621304248
 20
6.3407917815713093
 30
0.0
 11
48.735163002114007
 21
6.3191161005545098
 31
0.0
  0
LINE
  5
4006F
  8
OBJ
  6
CONTINUOUS
 10
48.985031897878109
 20
6.2716980523497483
 30
0.0
 11
48.985031897878109
 21
6.3321489567063969
 31
0.0
  0
LINE
  5
40070
  8
OBJ
  6
CONTINUOUS
 10
49.076882387808737
 20
6.3407917815713093
 30
0.0
 11
49.114425768618489
 21
6.3191161005545098
 31
0.0
  0
LINE
  5
40071
  8
OBJ
  6
CONTINUOUS
 10
48.867164829495437
 20
6.3321489567063969
 30
0.0
 11
48.867164829495437
 21
6.2716980523497554
 31
0.0
  0
TEXT
  5
40072
  8
OBJ
  6
CONTINUOUS
 10
48.889382839095092
 20
6.2796547578086219
 30
0.0
 40
0.05
  1
LO
  7
SIMPLEX
  0
LINE
  5
40073
  8
0
 10
48.355598034201961
 20
6.2845599397157139
 30
0.0
 11
48.355598034201968
 21
4.6646261499979822
 31
0.0
  0
LINE
  5
40074
  8
0
 10
48.735163002114007
 20
6.2845599397157139
 30
0.0
 11
48.735163002114007
 21
4.6646261499979822
 31
0.0
  0
LINE
  5
40075
  8
0
 10
49.114425768618489
 20
6.2845599397157139
 30
0.0
 11
49.114425768618489
 21
4.6646261499979822
 31
0.0
  0
LINE
  5
40078
  8
OBJ
  6
CONTINUOUS
 39
1.4579572651114241
 10
46.696754370210122
 20
-0.0902309999178854
 30
0.0
 11
46.696754370210122
 21
-0.1670942324730973
 31
0.0
  0
LINE
  5
40079
  8
OBJ
  6
CONTINUOUS
 39
1.4579572651114241
 10
46.787040507167461
 20
-0.0902309999178854
 30
0.0
 11
46.60646823325277
 21
-0.0902309999178854
 31
0.0
  0
CIRCLE
  5
4007A
  8
OBJ
  6
CONTINUOUS
 39
4.0822803423119884
 10
47.885139233564438
 20
-0.0529684681934004
 30
0.0
 40
0.0172651731004905
  0
CIRCLE
  5
4007B
  8
OBJ
  6
CONTINUOUS
 39
4.0822803423119884
 10
47.885139233564438
 20
0.1498056455376613
 30
0.0
 40
0.0172651731004905
  0
ARC
  5
4007C
  8
OBJ
  6
CONTINUOUS
 39
4.0822803423119884
 10
47.885139233564438
 20
0.0991121171048946
 30
0.0
 40
0.0506935284327638
 50
89.999999999999986
 51
270.0
  0
ARC
  5
4007D
  8
OBJ
  6
CONTINUOUS
 39
4.0822803423119884
 10
47.885139233564438
 20
-0.0022749397606354
 30
0.0
 40
0.0506935284327638
 50
270.0
 51
89.999999999999986
  0
LINE
  5
4008A
  8
OBJ
  6
CONTINUOUS
 39
1.4579572651114241
 10
48.013711620382431
 20
-2.0936682799877948
 30
0.0
 11
48.013711620382431
 21
-0.8597508444894685
 31
0.0
  0
ARC
  5
4008B
  8
OBJ
  6
CONTINUOUS
 39
2.9159145302228491
 10
47.488821139925228
 20
-1.4642098611279011
 30
0.0
 40
0.0256123892061805
 50
0.0000000000058013
 51
179.9999999999942
  0
ARC
  5
4008C
  8
OBJ
  6
CONTINUOUS
 39
2.9159145302228491
 10
47.545950769091348
 20
-1.470795383687443
 30
0.0
 40
0.0321979117657235
 50
11.80213918366851
 51
168.1978608163314
  0
ARC
  5
4008D
  8
OBJ
  6
CONTINUOUS
 39
2.9159145302228491
 10
47.545907341805432
 20
-1.470795383687441
 30
0.0
 40
0.0321979117657228
 50
11.80213918366232
 51
168.1978608163376
  0
ARC
  5
4008E
  8
OBJ
  6
CONTINUOUS
 39
2.9159145302228491
 10
47.488777712639333
 20
-1.4642098611279011
 30
0.0
 40
0.0256123892061805
 50
0.0000000000057886
 51
179.9999999999942
  0
ARC
  5
4008F
  8
OBJ
  6
CONTINUOUS
 39
2.9159145302228491
 10
47.432162013101632
 20
-1.470168125470344
 30
0.0
 40
0.0315706535486206
 50
10.878557415917101
 51
169.12144258408529
  0
ARC
  5
40090
  8
OBJ
  6
CONTINUOUS
 39
2.9159145302228491
 10
47.432205440387548
 20
-1.470168125470344
 30
0.0
 40
0.0315706535486201
 50
10.878557415912351
 51
169.12144258409
  0
ARC
  5
40091
  8
OBJ
  6
CONTINUOUS
 39
2.9159145302228491
 10
47.432205440387541
 20
-1.348607241074544
 30
0.0
 40
0.0314685125497257
 50
189.86408680245029
 51
350.13591319755022
  0
ARC
  5
40092
  8
OBJ
  6
CONTINUOUS
 39
2.9159145302228491
 10
47.488821139925228
 20
-1.3539981621998891
 30
0.0
 40
0.0256123892061805
 50
180.0
 51
0.0000000000000127
  0
ARC
  5
40093
  8
OBJ
  6
CONTINUOUS
 39
2.9159145302228491
 10
47.488777712639333
 20
-1.3539981621998891
 30
0.0
 40
0.0256123892061805
 50
180.0
 51
0.0
  0
ARC
  5
40094
  8
OBJ
  6
CONTINUOUS
 39
2.9159145302228491
 10
47.545950769091348
 20
-1.3474126396403461
 30
0.0
 40
0.0321979117657228
 50
191.80213918366229
 51
348.1978608163376
  0
ARC
  5
40095
  8
OBJ
  6
CONTINUOUS
 39
2.9159145302228491
 10
47.545907341805432
 20
-1.3474126396403461
 30
0.0
 40
0.0321979117657228
 50
191.80213918366229
 51
348.1978608163376
  0
CIRCLE
  5
40096
  8
OBJ
  6
CONTINUOUS
 39
2.9159145302228491
 10
47.61718967587786
 20
-1.3269592459013599
 30
0.0
 40
0.0123322665003503
  0
ARC
  5
40097
  8
OBJ
  6
CONTINUOUS
 39
4.0822803423119884
 10
47.708873354569207
 20
-0.0022749397606354
 30
0.0
 40
0.0506935284327638
 50
270.0
 51
89.999999999999986
  0
ARC
  5
40098
  8
OBJ
  6
CONTINUOUS
 39
4.0822803423119884
 10
47.708873354569207
 20
0.0991121171048946
 30
0.0
 40
0.0506935284327638
 50
89.999999999999986
 51
270.0
  0
CIRCLE
  5
40099
  8
OBJ
  6
CONTINUOUS
 39
4.0822803423119884
 10
47.708873354569207
 20
0.1498056455376613
 30
0.0
 40
0.0172651731004905
  0
CIRCLE
  5
4009A
  8
OBJ
  6
CONTINUOUS
 39
4.0822803423119884
 10
47.708873354569207
 20
-0.0529684681934004
 30
0.0
 40
0.0172651731004905
  0
CIRCLE
  5
4009B
  8
OBJ
  6
CONTINUOUS
 39
4.0822803423119884
 10
47.525122281723156
 20
-0.0529684681934004
 30
0.0
 40
0.0172651731004905
  0
CIRCLE
  5
4009C
  8
OBJ
  6
CONTINUOUS
 39
4.0822803423119884
 10
47.525122281723156
 20
0.1498056455376613
 30
0.0
 40
0.0172651731004905
  0
ARC
  5
4009D
  8
OBJ
  6
CONTINUOUS
 39
4.0822803423119884
 10
47.525122281723156
 20
0.0991121171048946
 30
0.0
 40
0.0506935284327638
 50
89.999999999999986
 51
270.0
  0
ARC
  5
4009E
  8
OBJ
  6
CONTINUOUS
 39
4.0822803423119884
 10
47.525122281723156
 20
-0.0022749397606354
 30
0.0
 40
0.0506935284327638
 50
270.0
 51
89.999999999999986
  0
ARC
  5
4009F
  8
OBJ
  6
CONTINUOUS
 39
2.9159145302228491
 10
47.796492364438421
 20
-1.4642098611279011
 30
0.0
 40
0.0256123892061805
 50
0.0000000000058013
 51
179.9999999999942
  0
ARC
  5
400A0
  8
OBJ
  6
CONTINUOUS
 39
2.9159145302228491
 10
47.853621993604527
 20
-1.470795383687445
 30
0.0
 40
0.0321979117657235
 50
11.80213918366851
 51
168.1978608163314
  0
ARC
  5
400A1
  8
OBJ
  6
CONTINUOUS
 39
2.9159145302228491
 10
47.85357856631861
 20
-1.470795383687443
 30
0.0
 40
0.0321979117657228
 50
11.80213918366232
 51
168.1978608163376
  0
ARC
  5
400A2
  8
OBJ
  6
CONTINUOUS
 39
2.9159145302228491
 10
47.796448937152519
 20
-1.4642098611279011
 30
0.0
 40
0.0256123892061805
 50
0.0000000000057886
 51
179.9999999999942
  0
ARC
  5
400A3
  8
OBJ
  6
CONTINUOUS
 39
2.9159145302228491
 10
47.73983323761481
 20
-1.470168125470344
 30
0.0
 40
0.0315706535486206
 50
10.878557415917101
 51
169.12144258408529
  0
ARC
  5
400A4
  8
OBJ
  6
CONTINUOUS
 39
2.9159145302228491
 10
47.739876664900727
 20
-1.470168125470344
 30
0.0
 40
0.0315706535486201
 50
10.878557415912351
 51
169.12144258409
  0
ARC
  5
400A5
  8
OBJ
  6
CONTINUOUS
 39
2.9159145302228491
 10
47.73987666490072
 20
-1.348607241074546
 30
0.0
 40
0.0314685125497257
 50
189.86408680245029
 51
350.13591319755022
  0
ARC
  5
400A6
  8
OBJ
  6
CONTINUOUS
 39
2.9159145302228491
 10
47.796492364438421
 20
-1.3539981621998891
 30
0.0
 40
0.0256123892061805
 50
180.0
 51
0.0000000000000127
  0
ARC
  5
400A7
  8
OBJ
  6
CONTINUOUS
 39
2.9159145302228491
 10
47.796448937152519
 20
-1.3539981621998891
 30
0.0
 40
0.0256123892061805
 50
180.0
 51
0.0
  0
ARC
  5
400A8
  8
OBJ
  6
CONTINUOUS
 39
2.9159145302228491
 10
47.853621993604527
 20
-1.3474126396403481
 30
0.0
 40
0.0321979117657228
 50
191.80213918366229
 51
348.1978608163376
  0
ARC
  5
400A9
  8
OBJ
  6
CONTINUOUS
 39
2.9159145302228491
 10
47.85357856631861
 20
-1.3474126396403481
 30
0.0
 40
0.0321979117657228
 50
191.80213918366229
 51
348.1978608163376
  0
CIRCLE
  5
400AA
  8
OBJ
  6
CONTINUOUS
 39
2.9159145302228491
 10
47.924860900391053
 20
-1.3269592459013599
 30
0.0
 40
0.0123322665003503
  0
LINE
  5
400AB
  8
OBJ
  6
CONTINUOUS
 39
1.4579572651114241
 10
46.60646823325277
 20
-0.0902309999178854
 30
0.0
 11
46.683327114514263
 21
-0.0902309999178854
 31
0.0
  0
LINE
  5
400AC
  8
OBJ
  6
CONTINUOUS
 39
1.4579572651114241
 10
46.60646823325277
 20
5.153675507817673
 30
0.0
 11
46.683327114514263
 21
5.153675507817673
 31
0.0
  0
ARC
  5
400B9
  8
OBJ
  6
CONTINUOUS
 39
4.0822803423119884
 10
47.525122281723156
 20
5.241631567974923
 30
0.0
 40
0.0506935284327638
 50
270.0
 51
89.999999999999986
  0
ARC
  5
400BA
  8
OBJ
  6
CONTINUOUS
 39
4.0822803423119884
 10
47.525122281723156
 20
5.3430186248404539
 30
0.0
 40
0.0506935284327638
 50
89.999999999999986
 51
270.0
  0
CIRCLE
  5
400BB
  8
OBJ
  6
CONTINUOUS
 39
4.0822803423119884
 10
47.525122281723156
 20
5.3937121532732188
 30
0.0
 40
0.0172651731004905
  0
CIRCLE
  5
400BC
  8
OBJ
  6
CONTINUOUS
 39
4.0822803423119884
 10
47.525122281723156
 20
5.190938039542158
 30
0.0
 40
0.0172651731004905
  0
CIRCLE
  5
400BD
  8
OBJ
  6
CONTINUOUS
 39
4.0822803423119884
 10
47.708873354569207
 20
5.190938039542158
 30
0.0
 40
0.0172651731004905
  0
CIRCLE
  5
400BE
  8
OBJ
  6
CONTINUOUS
 39
4.0822803423119884
 10
47.708873354569207
 20
5.3937121532732188
 30
0.0
 40
0.0172651731004905
  0
ARC
  5
400BF
  8
OBJ
  6
CONTINUOUS
 39
4.0822803423119884
 10
47.708873354569207
 20
5.3430186248404539
 30
0.0
 40
0.0506935284327638
 50
89.999999999999986
 51
270.0
  0
ARC
  5
400C0
  8
OBJ
  6
CONTINUOUS
 39
4.0822803423119884
 10
47.708873354569207
 20
5.241631567974923
 30
0.0
 40
0.0506935284327638
 50
270.0
 51
89.999999999999986
  0
LINE
  5
400CD
  8
OBJ
  6
CONTINUOUS
 39
1.4579572651114241
 10
48.013711620382431
 20
3.1502382277477619
 30
0.0
 11
48.013711620382431
 21
4.384155663246089
 31
0.0
  0
ARC
  5
400DA
  8
OBJ
  6
CONTINUOUS
 39
4.0822803423119884
 10
47.885139233564438
 20
5.241631567974923
 30
0.0
 40
0.0506935284327638
 50
270.0
 51
89.999999999999986
  0
ARC
  5
400DB
  8
OBJ
  6
CONTINUOUS
 39
4.0822803423119884
 10
47.885139233564438
 20
5.3430186248404539
 30
0.0
 40
0.0506935284327638
 50
89.999999999999986
 51
270.0
  0
CIRCLE
  5
400DC
  8
OBJ
  6
CONTINUOUS
 39
4.0822803423119884
 10
47.885139233564438
 20
5.3937121532732188
 30
0.0
 40
0.0172651731004905
  0
CIRCLE
  5
400DD
  8
OBJ
  6
CONTINUOUS
 39
4.0822803423119884
 10
47.885139233564438
 20
5.190938039542158
 30
0.0
 40
0.0172651731004905
  0
LINE
  5
400DE
  8
OBJ
  6
CONTINUOUS
 39
1.4579572651114241
 10
46.787040507167461
 20
5.153675507817673
 30
0.0
 11
46.60646823325277
 21
5.153675507817673
 31
0.0
  0
LINE
  5
400DF
  8
OBJ
  6
CONTINUOUS
 39
1.4579572651114241
 10
46.696754370210122
 20
5.153675507817673
 30
0.0
 11
46.696754370210122
 21
5.076812275262462
 31
0.0
  0
LINE
  5
400E2
  8
0
 10
47.401202130056021
 20
-0.7119726109114115
 30
0.0
 11
47.401202130056021
 21
-1.3539981621998891
 31
0.0
  0
LINE
  5
400E4
  8
0
 10
47.708873354569199
 20
-1.2172852287540159
 30
0.0
 11
47.708873354569207
 21
-1.3539981621998891
 31
0.0
  0
LINE
  5
400E6
  8
0
 10
48.924945486070023
 20
-0.6598341943697755
 30
0.0
 11
48.92494548607003
 21
-1.76140952683005
 31
0.0
  0
LINE
  5
400E7
  8
0
 10
49.114425768618489
 20
-0.6598341943697755
 30
0.0
 11
49.114425768618489
 21
-1.763152503533044
 31
0.0
  0
LINE
  5
400EA
  8
0
 10
48.355598034201961
 20
-0.6598341943697755
 30
0.0
 11
48.355598034201961
 21
-2.025941304229121
 31
0.0
  0
LINE
  5
400EB
  8
0
 10
48.165815550245917
 20
-0.6598341943697755
 30
0.0
 11
48.165815550245917
 21
-2.025941304229121
 31
0.0
  0
LINE
  5
400ED
  8
0
 10
47.885139233564438
 20
-0.0529684681934004
 30
0.0
 11
47.885139233564438
 21
-1.3539981621998891
 31
0.0
  0
CIRCLE
  5
400EF
  8
OBJ
  6
CONTINUOUS
 39
0.5282410363257157
 10
48.383564193197437
 20
-2.0038248791011242
 30
0.0
 40
0.0093714308432137
  0
TEXT
  5
400F5
  8
OBJ
  6
CONTINUOUS
 10
46.791944154554081
 20
-1.5909284881531101
 30
0.0
 40
0.0661329443497673
  1
LOAD
  0
TEXT
  5
400F7
  8
0
 10
46.91022069016207
 20
-1.99640910207043
 30
0.0
 40
0.06
  1
A
  0
TEXT
  5
400F8
  8
OBJ
  6
CONTINUOUS
 10
47.786865716133157
 20
-2.1924923540659029
 30
0.0
 40
0.0444391
  1
SWITCHGEAR CHASSIS
  7
SIMPLEX
  0
ARC
  5
400F9
  8
0
 10
48.213261171234947
 20
-2.025941304229121
 30
0.0
 40
0.0474456209890022
 50
180.0
 51
0.0
  0
TEXT
  5
400FA
  8
OBJ
  6
CONTINUOUS
 10
47.949258609356143
 20
-2.278277160347181
 30
0.0
 40
0.0444391
  1
GROUND
  7
SIMPLEX
  0
ARC
  5
400FB
  8
0
 10
48.308152413212959
 20
-2.025941304229121
 30
0.0
 40
0.0474456209890022
 50
180.0
 51
0.0
  0
TEXT
  5
40102
  8
0
 10
46.91022069016207
 20
-1.8641432133708939
 30
0.0
 40
0.06
  1
B
  0
TEXT
  5
40104
  8
0
 10
46.91022069016207
 20
-1.731877324671359
 30
0.0
 40
0.06
  1
C
  0
TEXT
  5
40109
  8
OBJ
  6
CONTINUOUS
 10
47.115914782399642
 20
-1.432522544738462
 30
0.0
 40
0.06087276
  1
PT'S
  7
SIMPLEX
  0
LINE
  5
4010A
  8
0
 10
47.401202130056021
 20
-1.464209861127947
 30
0.0
 11
47.401202130055992
 21
-2.025941304229121
 31
0.0
  0
LINE
  5
4010B
  8
0
 10
47.708873354569207
 20
-1.464209861127947
 30
0.0
 11
47.708873354569199
 21
-1.6009227945737741
 31
0.0
  0
LINE
  5
4010C
  8
OBJ
  6
CONTINUOUS
 10
47.577468009051259
 20
-1.4642098611279011
 30
0.0
 11
47.577468009051259
 21
-1.6009227945737741
 31
0.0
  0
LINE
  5
4010D
  8
0
 10
47.577468009051252
 20
-1.464209861127898
 30
0.0
 11
47.577468009051252
 21
-1.6009227945737741
 31
0.0
  0
LINE
  5
4010E
  8
0
 10
47.885139233564431
 20
-1.464209861127898
 30
0.0
 11
47.885139233564438
 21
-1.76140952683005
 31
0.0
  0
LINE
  5
4010F
  8
OBJ
  6
CONTINUOUS
 10
47.885139233564438
 20
-1.4642098611279011
 30
0.0
 11
47.885139233564438
 21
-1.76140952683005
 31
0.0
  0
ARC
  5
40114
  8
0
 10
49.066980147629479
 20
-1.763152503533044
 30
0.0
 40
0.0474456209890022
 50
180.0
 51
0.0
  0
ARC
  5
40115
  8
0
 10
48.972088905651482
 20
-1.763152503533044
 30
0.0
 40
0.0474456209890022
 50
180.0
 51
0.0
  0
LINE
  5
40116
  8
OBJ
  6
CONTINUOUS
 39
0.5282410363257157
 10
48.544643849454118
 20
-0.5575653449581495
 30
0.0
 11
48.565728305816393
 21
-0.5364808885958823
 31
0.0
  0
LINE
  5
40117
  8
OBJ
  6
CONTINUOUS
 39
0.5282410363257157
 10
48.186163337904333
 20
-0.5364808885958823
 30
0.0
 11
48.52442832768439
 21
-0.5364808885958841
 31
0.0
  0
LINE
  5
40118
  8
OBJ
  6
CONTINUOUS
 39
0.5282410363257157
 10
48.165078881542051
 20
-0.5575653449581495
 30
0.0
 11
48.186163337904333
 21
-0.5364808885958823
 31
0.0
  0
LINE
  5
40119
  8
OBJ
  6
CONTINUOUS
 39
0.5282410363257157
 10
48.545512784046672
 20
-0.5575653449581495
 30
0.0
 11
48.52442832768439
 21
-0.5364808885958823
 31
0.0
  0
LINE
  5
4011A
  8
OBJ
  6
CONTINUOUS
 39
0.5282410363257157
 10
48.925077751958732
 20
-0.5575653449581495
 30
0.0
 11
48.90399329559645
 21
-0.5364808885958823
 31
0.0
  0
LINE
  5
4011B
  8
OBJ
  6
CONTINUOUS
 39
0.5282410363257157
 10
48.544643849454118
 20
-0.5575653449581495
 30
0.0
 11
48.5657283058164
 21
-0.5364808885958823
 31
0.0
  0
LINE
  5
4011C
  8
OBJ
  6
CONTINUOUS
 39
0.5282410363257157
 10
48.5657283058164
 20
-0.5364808885958823
 30
0.0
 11
48.90399329559645
 21
-0.5364808885958841
 31
0.0
  0
LINE
  5
4011D
  8
OBJ
  6
CONTINUOUS
 39
0.5282410363257157
 10
48.924208817366193
 20
-0.5575653449581495
 30
0.0
 11
48.94529327372846
 21
-0.5364808885958823
 31
0.0
  0
LINE
  5
4011E
  8
OBJ
  6
CONTINUOUS
 39
0.5282410363257157
 10
48.924208817366193
 20
4.6863411627774081
 30
0.0
 11
48.94529327372846
 21
4.7074256191396762
 31
0.0
  0
LINE
  5
4011F
  8
OBJ
  6
CONTINUOUS
 39
0.5282410363257157
 10
48.5657283058164
 20
4.7074256191396762
 30
0.0
 11
48.90399329559645
 21
4.7074256191396753
 31
0.0
  0
LINE
  5
40120
  8
OBJ
  6
CONTINUOUS
 39
0.5282410363257157
 10
48.544643849454118
 20
4.6863411627774081
 30
0.0
 11
48.5657283058164
 21
4.7074256191396762
 31
0.0
  0
LINE
  5
40121
  8
OBJ
  6
CONTINUOUS
 39
0.5282410363257157
 10
48.925077751958732
 20
4.6863411627774081
 30
0.0
 11
48.90399329559645
 21
4.7074256191396762
 31
0.0
  0
LINE
  5
40122
  8
OBJ
  6
CONTINUOUS
 39
0.5282410363257157
 10
48.545512784046672
 20
4.6863411627774081
 30
0.0
 11
48.52442832768439
 21
4.7074256191396762
 31
0.0
  0
LINE
  5
40123
  8
OBJ
  6
CONTINUOUS
 39
0.5282410363257157
 10
48.165078881542051
 20
4.6863411627774081
 30
0.0
 11
48.186163337904333
 21
4.7074256191396762
 31
0.0
  0
LINE
  5
40124
  8
OBJ
  6
CONTINUOUS
 39
0.5282410363257157
 10
48.186163337904333
 20
4.7074256191396762
 30
0.0
 11
48.52442832768439
 21
4.7074256191396753
 31
0.0
  0
LINE
  5
40125
  8
OBJ
  6
CONTINUOUS
 39
0.5282410363257157
 10
48.544643849454118
 20
4.6863411627774081
 30
0.0
 11
48.565728305816393
 21
4.7074256191396762
 31
0.0
  0
CIRCLE
  5
40126
  8
OBJ
  6
CONTINUOUS
 39
0.5282410363257157
 10
48.763129161109482
 20
3.3723475173339699
 30
0.0
 40
0.0093714308432137
  0
CIRCLE
  5
40127
  8
OBJ
  6
CONTINUOUS
 39
0.5282410363257157
 10
48.383564193197437
 20
3.2400816286344352
 30
0.0
 40
0.0093714308432137
  0
CIRCLE
  5
40128
  8
OBJ
  6
CONTINUOUS
 62
     7
 10
48.54538051815797
 20
0.9187784708965125
 30
0.0
 40
0.0779075228723947
  0
CIRCLE
  5
40129
  8
OBJ
  6
CONTINUOUS
 62
     7
 10
48.92494548607003
 20
0.9187784708965125
 30
0.0
 40
0.0779075228723947
  0
CIRCLE
  5
4012A
  8
OBJ
  6
CONTINUOUS
 62
     7
 10
48.165815550245917
 20
0.9187784708965125
 30
0.0
 40
0.0779075228723947
  0
LINE
  5
4012B
  8
0
 10
46.956132922668779
 20
0.992133723261638
 30
0.0
 11
46.956132922668779
 21
-0.0902309999178854
 31
0.0
  0
LINE
  5
4012C
  8
0
 10
46.606468233252777
 20
0.992133723261638
 30
0.0
 11
46.606468233252777
 21
-0.0902309999178854
 31
0.0
  0
LINE
  5
4012D
  8
0
 10
46.787040507167461
 20
0.992133723261638
 30
0.0
 11
46.787040507167461
 21
-0.0902309999178854
 31
0.0
  0
LINE
  5
4012F
  8
0
 10
47.885139233564438
 20
0.992133723261638
 30
0.0
 11
47.885139233564438
 21
0.1325404724371708
 31
0.0
  0
LINE
  5
40130
  8
0
 10
47.708873354569207
 20
0.992133723261638
 30
0.0
 11
47.708873354569207
 21
0.1325404724371708
 31
0.0
  0
LINE
  5
40131
  8
0
 10
47.525122281723156
 20
0.992133723261638
 30
0.0
 11
47.525122281723156
 21
0.1325404724371708
 31
0.0
  0
LINE
  5
40132
  8
0
 10
48.92494548607003
 20
0.9187784708965125
 30
0.0
 11
48.92494548607003
 21
-0.5792803577375773
 31
0.0
  0
LINE
  5
40134
  8
0
 10
48.165815550245917
 20
0.9187784708965125
 30
0.0
 11
48.165815550245917
 21
-0.5792803577375773
 31
0.0
  0
LINE
  5
40135
  8
0
 10
49.114425768618489
 20
1.118560954852551
 30
0.0
 11
49.114425768618489
 21
-0.5792803577375773
 31
0.0
  0
LINE
  5
40137
  8
0
 10
48.355598034201961
 20
1.118560954852551
 30
0.0
 11
48.355598034201968
 21
-0.5792803577375773
 31
0.0
  0
LINE
  5
40138
  8
OBJ
  6
CONTINUOUS
 62
     7
 10
46.496685242678133
 20
0.8632978832505919
 30
0.0
 11
46.496685242678133
 21
2.2609793932770681
 31
0.0
  0
LINE
  5
40139
  8
OBJ
  6
CONTINUOUS
 62
     7
 10
46.45891006673147
 20
0.589503407989195
 30
0.0
 11
46.45891006673147
 21
2.487932650364614
 31
0.0
  0
TEXT
  5
4013B
  8
OBJ
  6
CONTINUOUS
 10
48.045329875932453
 20
-0.0196633752736748
 30
0.0
 40
0.0438068230436382
  1
2A
  0
LINE
  5
4013C
  8
OBJ
  6
CONTINUOUS
 10
47.885139233564438
 20
-0.0379684681933998
 30
0.0
 11
47.885139233564438
 21
-0.0876274386878091
 31
0.0
  0
LINE
  5
4013F
  8
0
 10
47.525122281723156
 20
-0.0529684681934004
 30
0.0
 11
47.525122281723156
 21
-0.7119726109114115
 31
0.0
  0
LINE
  5
40140
  8
0
 10
47.708873354569207
 20
-0.0582987228923528
 30
0.0
 11
47.708873354569207
 21
-0.8340100217591643
 31
0.0
  0
LINE
  5
40141
  8
0
 10
47.525122281723156
 20
-0.7119726109114115
 30
0.0
 11
47.401202130056006
 21
-0.7119726109114115
 31
0.0
  0
TEXT
  5
40146
  8
OBJ
  6
CONTINUOUS
 10
46.411871930333547
 20
-0.2666554308387106
 30
0.0
 40
0.0462023
  1
SUPPLY POWER
  7
SIMPLEX
  0
TEXT
  5
40147
  8
OBJ
  6
CONTINUOUS
 10
46.415057518474278
 20
-0.4424747124442945
 30
0.0
 40
0.04
  1
POWER SUPPLY OPTION)
  7
SIMPLEX
  0
TEXT
  5
40148
  8
OBJ
  6
CONTINUOUS
 10
46.403468067879842
 20
-0.3549911800656282
 30
0.0
 40
0.0462023
  1
(DEPENDENT ON EQUIPPED 
  7
SIMPLEX
  0
POINT
  5
40149
  8
OBJ
  6
BYBLOCK
 62
     0
 10
46.607499866552089
 20
-0.3231248303957734
 30
0.0
  0
SOLID
  5
4014A
  8
OBJ
  6
BYBLOCK
 62
     0
 10
46.707706075971018
 20
-0.1129268286232019
 30
0.0
 11
46.685802664449213
 21
-0.1129268286232019
 31
0.0
 12
46.696754370210122
 22
-0.1786370631886598
 32
0.0
 13
46.696754370210122
 23
-0.1786370631886598
 33
0.0
  0
POINT
  5
4014B
  8
OBJ
  6
BYBLOCK
 62
     0
 10
46.60646823325277
 20
-0.0902309999178854
 30
0.0
  0
LINE
  5
4014C
  8
OBJ
  6
CONTINUOUS
 10
46.915952291698297
 20
-0.0902309999178854
 30
0.0
 11
46.901614894917948
 21
-0.1288811516268336
 31
0.0
  0
LINE
  5
4014D
  8
OBJ
  6
CONTINUOUS
 10
46.956132922668779
 20
-0.0902309999178854
 30
0.0
 11
46.941795525888423
 21
-0.1288811516268336
 31
0.0
  0
LINE
  5
4014E
  8
OBJ
  6
CONTINUOUS
 10
46.996313553639261
 20
-0.0902309999178854
 30
0.0
 11
46.915952291698297
 21
-0.0902309999178854
 31
0.0
  0
LINE
  5
4014F
  8
OBJ
  6
CONTINUOUS
 10
46.996313553639261
 20
-0.0902309999178854
 30
0.0
 11
46.981976156858913
 21
-0.1288811516268336
 31
0.0
  0
LINE
  5
40150
  8
OBJ
  6
CONTINUOUS
 10
48.07649554396356
 20
-0.705528119030177
 30
0.0
 11
48.076495543963553
 21
-0.4966545635655813
 31
0.0
  0
LINE
  5
40151
  8
0
 10
48.13828712404554
 20
-0.646682623299725
 30
0.0
 11
48.047733462602451
 21
-0.7775363496603234
 31
0.0
  0
LINE
  5
40152
  8
OBJ
  6
CONTINUOUS
 10
48.080413049281823
 20
-0.7767760659431425
 30
0.0
 11
48.011475761816939
 21
-0.7767760659431425
 31
0.0
  0
LINE
  5
40153
  8
OBJ
  6
CONTINUOUS
 10
48.137335468179323
 20
-0.5910771939870722
 30
0.0
 11
48.194295632312539
 21
-0.6480373581202948
 31
0.0
  0
CIRCLE
  5
40154
  8
OBJ
  6
CONTINUOUS
 10
48.165815550245917
 20
-0.6195572760536763
 30
0.0
 40
0.0402769183160991
  0
SOLID
  5
40157
  8
OBJ
  6
BYBLOCK
 62
     0
 10
48.02466332614334
 20
-0.9139182483393639
 30
0.0
 11
48.002759914621528
 21
-0.9139182483393639
 31
0.0
 12
48.013711620382431
 22
-0.848208013773906
 32
0.0
 13
48.013711620382431
 23
-0.848208013773906
 33
0.0
  0
LINE
  5
40158
  8
OBJ
  6
CONTINUOUS
 10
48.011475761816939
 20
-0.7767760659431425
 30
0.0
 11
47.99917653679892
 21
-0.8099317998697461
 31
0.0
  0
LINE
  5
40159
  8
OBJ
  6
CONTINUOUS
 10
48.080413049281823
 20
-0.7767760659431425
 30
0.0
 11
48.068113824263783
 21
-0.8099317998697461
 31
0.0
  0
LINE
  5
4015A
  8
OBJ
  6
CONTINUOUS
 10
48.045944405549378
 20
-0.7767760659431425
 30
0.0
 11
48.03364518053133
 21
-0.8099317998697461
 31
0.0
  0
LINE
  5
4015B
  8
OBJ
  6
CONTINUOUS
 10
48.32711795213536
 20
-0.5910771939870722
 30
0.0
 11
48.384078116268583
 21
-0.6480373581202948
 31
0.0
  0
CIRCLE
  5
4015C
  8
OBJ
  6
CONTINUOUS
 10
48.355598034201961
 20
-0.6195572760536763
 30
0.0
 40
0.0402769183160991
  0
LINE
  5
4015D
  8
OBJ
  6
CONTINUOUS
 10
48.896465404003429
 20
-0.5910771939870722
 30
0.0
 11
48.953425568136652
 21
-0.6480373581202948
 31
0.0
  0
LINE
  5
4015E
  8
OBJ
  6
CONTINUOUS
 10
48.706682920047399
 20
-0.5910771939870722
 30
0.0
 11
48.763643084180622
 21
-0.6480373581202948
 31
0.0
  0
CIRCLE
  5
4015F
  8
OBJ
  6
CONTINUOUS
 10
48.735163002114007
 20
-0.6195572760536763
 30
0.0
 40
0.0402769183160991
  0
LINE
  5
40160
  8
OBJ
  6
CONTINUOUS
 10
48.516900436091369
 20
-0.5910771939870722
 30
0.0
 11
48.573860600224577
 21
-0.6480373581202948
 31
0.0
  0
CIRCLE
  5
40161
  8
OBJ
  6
CONTINUOUS
 10
48.54538051815797
 20
-0.6195572760536763
 30
0.0
 40
0.0402769183160991
  0
CIRCLE
  5
40162
  8
OBJ
  6
CONTINUOUS
 10
48.924945486070037
 20
-0.6195572760536763
 30
0.0
 40
0.0402769183160991
  0
TEXT
  5
40163
  8
OBJ
  6
CONTINUOUS
 10
47.953232996931092
 20
-0.3991946443599747
 30
0.0
 40
0.06087276
  1
CT'S
  7
SIMPLEX
  0
LINE
  5
40164
  8
OBJ
  6
CONTINUOUS
 62
     7
 10
47.407671385807816
 20
0.4462599407994468
 30
0.0
 11
47.178829369922951
 21
0.4462599407994468
 31
0.0
  0
ARC
  5
40165
  8
OBJ
  6
CONTINUOUS
 62
     7
 10
46.572235594571453
 20
0.8632978832505919
 30
0.0
 40
0.0755503518933231
 50
180.0
 51
270.0
  0
LINE
  5
40166
  8
OBJ
  6
CONTINUOUS
 62
     7
 10
46.949987354038072
 20
0.5895034079892004
 30
0.0
 11
46.949987354038072
 21
0.5210547891738422
 31
0.0
  0
LINE
  5
40167
  8
OBJ
  6
CONTINUOUS
 62
     7
 10
46.949987354038072
 20
0.5210547891738422
 30
0.0
 11
47.178829369922951
 21
0.4462599407994468
 31
0.0
  0
LINE
  5
40168
  8
OBJ
  6
CONTINUOUS
 10
47.525122281723156
 20
0.5537801275494036
 30
0.0
 11
47.525122281723156
 21
0.3158471043686521
 31
0.0
  0
LINE
  5
40169
  8
OBJ
  6
CONTINUOUS
 10
47.708873354569207
 20
0.5537801275494036
 30
0.0
 11
47.708873354569207
 21
0.3158471043686521
 31
0.0
  0
LINE
  5
4016A
  8
OBJ
  6
CONTINUOUS
 10
47.885139233564438
 20
0.5537801275494036
 30
0.0
 11
47.885139233564438
 21
0.1348056455376607
 31
0.0
  0
TEXT
  5
4016B
  8
OBJ
  6
CONTINUOUS
 10
48.044268821570157
 20
0.339697922742392
 30
0.0
 40
0.0438068230436382
  1
FUSES
  0
LINE
  5
4016F
  8
OBJ
  6
CONTINUOUS
 62
     7
 10
48.616477016100987
 20
0.4462599407994468
 30
0.0
 11
47.474457896881511
 21
0.4462599407994468
 31
0.0
  0
LINE
  5
40170
  8
OBJ
  6
CONTINUOUS
 62
     7
 10
47.474457896881511
 20
0.5210547891738422
 30
0.0
 11
47.474457896881511
 21
0.4462599407994468
 31
0.0
  0
LINE
  5
40171
  8
OBJ
  6
CONTINUOUS
 62
     7
 10
47.407671385807816
 20
0.5210547891738422
 30
0.0
 11
47.407671385807816
 21
0.4462599407994468
 31
0.0
  0
ARC
  5
40172
  8
OBJ
  6
CONTINUOUS
 62
     7
 10
47.441064641344667
 20
0.5210547891738387
 30
0.0
 40
0.0333932555368488
 50
0.0
 51
180.0
  0
LINE
  5
40173
  8
OBJ
  6
CONTINUOUS
 62
     7
 10
48.683263527174681
 20
0.5210547891738422
 30
0.0
 11
48.683263527174681
 21
0.4462599407994521
 31
0.0
  0
LINE
  5
40174
  8
OBJ
  6
CONTINUOUS
 62
     7
 10
48.616477016100987
 20
0.5210547891738422
 30
0.0
 11
48.616477016100987
 21
0.4462599407994468
 31
0.0
  0
ARC
  5
40175
  8
OBJ
  6
CONTINUOUS
 62
     7
 10
48.649870271637838
 20
0.5210547891738387
 30
0.0
 40
0.0333932555368488
 50
0.0
 51
180.0
  0
LINE
  5
40176
  8
OBJ
  6
CONTINUOUS
 62
     7
 10
48.912105543059553
 20
0.4462599407994521
 30
0.0
 11
48.683263527174681
 21
0.4462599407994521
 31
0.0
  0
LINE
  5
40177
  8
OBJ
  6
CONTINUOUS
 62
     7
 10
47.972942908155467
 20
1.171423289061444
 30
0.0
 11
46.51866455866174
 21
1.171423289061444
 31
0.0
  0
LINE
  5
40178
  8
OBJ
  6
CONTINUOUS
 10
47.272362906511972
 20
1.1833717688007179
 30
0.0
 11
47.420484199824912
 21
1.1833717688007179
 31
0.0
  0
LINE
  5
40179
  8
OBJ
  6
CONTINUOUS
 10
47.420484199824926
 20
1.2647572129108191
 30
0.0
 11
47.272362906511972
 21
1.2647572129108191
 31
0.0
  0
TEXT
  5
4017A
  8
OBJ
  6
CONTINUOUS
 10
47.285175192626077
 20
1.2024634932193821
 30
0.0
 40
0.04
  1
Vref.
  7
SIMPLEX
  0
TEXT
  5
4017B
  8
OBJ
  6
CONTINUOUS
 10
46.777024923220651
 20
1.421638371134619
 30
0.0
 40
0.0755503518933231
  1
NEXUS 1250
  7
SIMPLEX
  0
LINE
  5
4017C
  8
OBJ
  6
CONTINUOUS
 62
     7
 10
47.972942908155467
 20
0.8933979940940197
 30
0.0
 11
46.51866455866174
 21
0.8933979940940197
 31
0.0
  0
LINE
  5
4017D
  8
OBJ
  6
CONTINUOUS
 10
47.312781372660289
 20
1.014499126994646
 30
0.0
 11
47.384931432795582
 21
1.050322156160834
 31
0.0
  0
CIRCLE
  5
4017E
  8
OBJ
  6
CONTINUOUS
 10
47.347886233058787
 20
1.032410641577737
 30
0.0
 40
0.0402769183160991
  0
TEXT
  5
4017F
  8
OBJ
  6
CONTINUOUS
 10
46.731675740339561
 20
1.194981890407036
 30
0.0
 40
0.06
  1
N-
  7
SIMPLEX
  0
LINE
  5
40180
  8
OBJ
  6
CONTINUOUS
 10
46.855240499103537
 20
1.2647572129108191
 30
0.0
 11
46.715369132263042
 21
1.2647572129108191
 31
0.0
  0
LINE
  5
40181
  8
OBJ
  6
CONTINUOUS
 10
46.715369132263042
 20
1.1833717688007179
 30
0.0
 11
46.855240499103523
 21
1.1833717688007179
 31
0.0
  0
ARC
  5
40182
  8
OBJ
  6
CONTINUOUS
 10
46.675009219838017
 20
1.1984818391793881
 30
0.0
 40
0.0151100703786646
 50
270.0
 51
359.9999999999971
  0
ARC
  5
40183
  8
OBJ
  6
CONTINUOUS
 10
46.675009219838039
 20
1.249647142532158
 30
0.0
 40
0.0151100703786646
 50
0.0
 51
90.0
  0
LINE
  5
40184
  8
OBJ
  6
CONTINUOUS
 10
46.6901192902167
 20
1.1984818391793881
 30
0.0
 11
46.6901192902167
 21
1.249647142532158
 31
0.0
  0
ARC
  5
40185
  8
OBJ
  6
CONTINUOUS
 10
46.715369132263042
 20
1.249647142532158
 30
0.0
 40
0.0151100703786646
 50
90.0
 51
180.0
  0
LINE
  5
40186
  8
OBJ
  6
CONTINUOUS
 10
46.700259061884388
 20
1.249647142532158
 30
0.0
 11
46.700259061884388
 21
1.1984818391793881
 31
0.0
  0
ARC
  5
40187
  8
OBJ
  6
CONTINUOUS
 10
46.715369132263042
 20
1.1984818391793881
 30
0.0
 40
0.0151100703786646
 50
179.9999999999971
 51
270.0
  0
ARC
  5
40188
  8
OBJ
  6
CONTINUOUS
 10
46.535137852997543
 20
1.1984818391793881
 30
0.0
 40
0.0151100703786646
 50
179.9999999999971
 51
270.0
  0
LINE
  5
40189
  8
OBJ
  6
CONTINUOUS
 10
46.520027782618897
 20
1.249647142532158
 30
0.0
 11
46.520027782618897
 21
1.1984818391793881
 31
0.0
  0
ARC
  5
4018A
  8
OBJ
  6
CONTINUOUS
 10
46.535137852997543
 20
1.249647142532158
 30
0.0
 40
0.0151100703786646
 50
90.0
 51
180.0
  0
LINE
  5
4018B
  8
OBJ
  6
CONTINUOUS
 10
46.535137852997543
 20
1.1833717688007179
 30
0.0
 11
46.675009219838017
 21
1.1833717688007179
 31
0.0
  0
LINE
  5
4018C
  8
OBJ
  6
CONTINUOUS
 10
46.675009219838039
 20
1.2647572129108191
 30
0.0
 11
46.535137852997543
 21
1.2647572129108191
 31
0.0
  0
TEXT
  5
4018D
  8
OBJ
  6
CONTINUOUS
 10
46.557263352317747
 20
1.194981890407036
 30
0.0
 40
0.06
  1
L+
  7
SIMPLEX
  0
ARC
  5
4018E
  8
OBJ
  6
CONTINUOUS
 10
47.231550037072601
 20
1.1984818391793881
 30
0.0
 40
0.0151100703786646
 50
270.0
 51
359.9999999999971
  0
LINE
  5
4018F
  8
OBJ
  6
CONTINUOUS
 10
47.24666010745127
 20
1.1984818391793881
 30
0.0
 11
47.24666010745127
 21
1.249647142532158
 31
0.0
  0
ARC
  5
40190
  8
OBJ
  6
CONTINUOUS
 10
47.231550037072608
 20
1.249647142532158
 30
0.0
 40
0.0151100703786646
 50
0.0
 51
90.0
  0
ARC
  5
40191
  8
OBJ
  6
CONTINUOUS
 10
47.272362906511972
 20
1.1984818391793881
 30
0.0
 40
0.0151100703786646
 50
179.9999999999971
 51
270.0
  0
ARC
  5
40192
  8
OBJ
  6
CONTINUOUS
 10
47.272362906511972
 20
1.249647142532158
 30
0.0
 40
0.0151100703786646
 50
90.0
 51
180.0
  0
LINE
  5
40193
  8
OBJ
  6
CONTINUOUS
 10
47.257252836133333
 20
1.249647142532158
 30
0.0
 11
47.257252836133333
 21
1.1984818391793881
 31
0.0
  0
ARC
  5
40194
  8
OBJ
  6
CONTINUOUS
 10
47.087535765192058
 20
1.1984818391793881
 30
0.0
 40
0.0151100703786646
 50
179.9999999999971
 51
270.0
  0
ARC
  5
40195
  8
OBJ
  6
CONTINUOUS
 10
47.087535765192058
 20
1.249647142532158
 30
0.0
 40
0.0151100703786646
 50
90.0
 51
180.0
  0
LINE
  5
40196
  8
OBJ
  6
CONTINUOUS
 10
47.072425694813418
 20
1.249647142532158
 30
0.0
 11
47.072425694813418
 21
1.1984818391793881
 31
0.0
  0
ARC
  5
40197
  8
OBJ
  6
CONTINUOUS
 10
47.050405151201701
 20
1.1984818391793881
 30
0.0
 40
0.0151100703786646
 50
270.0
 51
359.9999999999971
  0
LINE
  5
40198
  8
OBJ
  6
CONTINUOUS
 10
47.065515221580377
 20
1.1984818391793881
 30
0.0
 11
47.065515221580377
 21
1.249647142532158
 31
0.0
  0
ARC
  5
40199
  8
OBJ
  6
CONTINUOUS
 10
47.050405151201723
 20
1.249647142532158
 30
0.0
 40
0.0151100703786646
 50
0.0
 51
90.0
  0
ARC
  5
4019A
  8
OBJ
  6
CONTINUOUS
 10
46.889688756860338
 20
1.1984818391793881
 30
0.0
 40
0.0151100703786646
 50
179.9999999999971
 51
270.0
  0
LINE
  5
4019B
  8
OBJ
  6
CONTINUOUS
 10
46.874578686481691
 20
1.249647142532158
 30
0.0
 11
46.874578686481691
 21
1.1984818391793881
 31
0.0
  0
ARC
  5
4019C
  8
OBJ
  6
CONTINUOUS
 10
46.889688756860338
 20
1.249647142532158
 30
0.0
 40
0.0151100703786646
 50
90.0
 51
180.0
  0
LINE
  5
4019D
  8
OBJ
  6
CONTINUOUS
 10
46.868023022034812
 20
1.1984818391793881
 30
0.0
 11
46.868023022034812
 21
1.249647142532158
 31
0.0
  0
ARC
  5
4019E
  8
OBJ
  6
CONTINUOUS
 10
46.854874566676699
 20
1.196643123220672
 30
0.0
 40
0.0132763984077345
 50
271.57942226466452
 51
7.9607727977391702
  0
ARC
  5
4019F
  8
OBJ
  6
CONTINUOUS
 10
46.854874566676713
 20
1.2514858584908739
 30
0.0
 40
0.0132763984077328
 50
352.039227202257
 51
88.420577735335499
  0
TEXT
  5
401A0
  8
OBJ
  6
CONTINUOUS
 10
46.88831371432719
 20
1.2024634932193821
 30
0.0
 40
0.04
  1
CHASIS
 41
0.8
  7
SIMPLEX
  0
LINE
  5
401A1
  8
OBJ
  6
CONTINUOUS
 10
47.049650841911891
 20
1.2647572129108191
 30
0.0
 11
46.886739082260469
 21
1.2647572129108191
 31
0.0
  0
LINE
  5
401A2
  8
OBJ
  6
CONTINUOUS
 10
46.888381899883541
 20
1.1833717688007179
 30
0.0
 11
47.053347170251158
 21
1.1833717688007179
 31
0.0
  0
TEXT
  5
401A3
  8
OBJ
  6
CONTINUOUS
 10
47.087673626237191
 20
1.205474801408551
 30
0.0
 40
0.04
  1
Vaux.
  7
SIMPLEX
  0
LINE
  5
401A4
  8
OBJ
  6
CONTINUOUS
 10
47.087535765192058
 20
1.1833717688007179
 30
0.0
 11
47.231550037072601
 21
1.1833717688007179
 31
0.0
  0
LINE
  5
401A5
  8
OBJ
  6
CONTINUOUS
 10
47.231550037072608
 20
1.2647572129108191
 30
0.0
 11
47.087535765192058
 21
1.2647572129108191
 31
0.0
  0
LINE
  5
401A6
  8
OBJ
  6
CONTINUOUS
 10
46.74762925184951
 20
1.014499126994646
 30
0.0
 11
46.819779311984789
 21
1.050322156160834
 31
0.0
  0
CIRCLE
  5
401A7
  8
OBJ
  6
CONTINUOUS
 10
46.787040507167461
 20
1.032410641577737
 30
0.0
 40
0.0402769183160991
  0
LINE
  5
401A8
  8
OBJ
  6
CONTINUOUS
 10
46.571363372854272
 20
1.014499126994646
 30
0.0
 11
46.643513432989558
 21
1.050322156160834
 31
0.0
  0
CIRCLE
  5
401A9
  8
OBJ
  6
CONTINUOUS
 10
46.606468233252777
 20
1.032410641577737
 30
0.0
 40
0.0402769183160991
  0
LINE
  5
401AA
  8
OBJ
  6
CONTINUOUS
 10
46.920057892601143
 20
1.014499126994646
 30
0.0
 11
46.992207952736422
 21
1.050322156160834
 31
0.0
  0
LINE
  5
401AB
  8
OBJ
  6
CONTINUOUS
 10
47.124802640679519
 20
1.014499126994646
 30
0.0
 11
47.196952700814812
 21
1.050322156160834
 31
0.0
  0
CIRCLE
  5
401AC
  8
OBJ
  6
CONTINUOUS
 10
47.160877670747169
 20
1.032410641577737
 30
0.0
 40
0.0402769183160991
  0
CIRCLE
  5
401AD
  8
OBJ
  6
CONTINUOUS
 10
46.956132922668779
 20
1.032410641577737
 30
0.0
 40
0.0402769183160991
  0
LINE
  5
401AE
  8
OBJ
  6
CONTINUOUS
 62
     7
 10
47.055157804095373
 20
0.8933979940940197
 30
0.0
 11
47.055157804095373
 21
1.171423289061444
 31
0.0
  0
LINE
  5
401AF
  8
OBJ
  6
CONTINUOUS
 62
     7
 10
47.24868134533817
 20
0.8933979940940197
 30
0.0
 11
47.24868134533817
 21
1.171423289061444
 31
0.0
  0
LINE
  5
401B0
  8
OBJ
  6
CONTINUOUS
 62
     7
 10
46.691444795417517
 20
0.8950059615940695
 30
0.0
 11
46.691444795417517
 21
1.173031256561494
 31
0.0
  0
LINE
  5
401B1
  8
OBJ
  6
CONTINUOUS
 62
     7
 10
46.87484418175849
 20
0.8933979940940197
 30
0.0
 11
46.87484418175849
 21
1.171423289061444
 31
0.0
  0
LINE
  5
401B2
  8
OBJ
  6
CONTINUOUS
 62
     7
 10
46.51866455866174
 20
0.8933979940940197
 30
0.0
 11
46.51866455866174
 21
1.171423289061444
 31
0.0
  0
ARC
  5
401B3
  8
OBJ
  6
CONTINUOUS
 10
47.636978958688523
 20
1.1984818391793881
 30
0.0
 40
0.0151100703786646
 50
179.9999999999971
 51
270.0
  0
ARC
  5
401B4
  8
OBJ
  6
CONTINUOUS
 10
47.636978958688523
 20
1.249647142532158
 30
0.0
 40
0.0151100703786646
 50
90.0
 51
180.0
  0
LINE
  5
401B5
  8
OBJ
  6
CONTINUOUS
 10
47.459704660643638
 20
1.1833717688007179
 30
0.0
 11
47.599576027484119
 21
1.1833717688007179
 31
0.0
  0
LINE
  5
401B6
  8
OBJ
  6
CONTINUOUS
 10
47.599576027484133
 20
1.2647572129108191
 30
0.0
 11
47.459704660643638
 21
1.2647572129108191
 31
0.0
  0
TEXT
  5
401B7
  8
OBJ
  6
CONTINUOUS
 10
47.481830159963842
 20
1.194981890407036
 30
0.0
 40
0.06
  1
Va
  7
SIMPLEX
  0
LINE
  5
401B8
  8
OBJ
  6
CONTINUOUS
 10
47.614686097862787
 20
1.1984818391793881
 30
0.0
 11
47.614686097862787
 21
1.249647142532158
 31
0.0
  0
ARC
  5
401B9
  8
OBJ
  6
CONTINUOUS
 10
47.599576027484133
 20
1.249647142532158
 30
0.0
 40
0.0151100703786646
 50
0.0
 51
90.0
  0
ARC
  5
401BA
  8
OBJ
  6
CONTINUOUS
 10
47.599576027484119
 20
1.1984818391793881
 30
0.0
 40
0.0151100703786646
 50
270.0
 51
359.9999999999971
  0
LINE
  5
401BB
  8
OBJ
  6
CONTINUOUS
 10
47.621868888309884
 20
1.249647142532158
 30
0.0
 11
47.621868888309884
 21
1.1984818391793881
 31
0.0
  0
ARC
  5
401BC
  8
OBJ
  6
CONTINUOUS
 10
47.420484199824926
 20
1.249647142532158
 30
0.0
 40
0.0151100703786646
 50
0.0
 51
90.0
  0
LINE
  5
401BD
  8
OBJ
  6
CONTINUOUS
 10
47.435594270203588
 20
1.1984818391793881
 30
0.0
 11
47.435594270203588
 21
1.249647142532158
 31
0.0
  0
ARC
  5
401BE
  8
OBJ
  6
CONTINUOUS
 10
47.420484199824912
 20
1.1984818391793881
 30
0.0
 40
0.0151100703786646
 50
270.0
 51
359.9999999999971
  0
LINE
  5
401BF
  8
OBJ
  6
CONTINUOUS
 10
47.444594590264998
 20
1.249647142532158
 30
0.0
 11
47.444594590264998
 21
1.1984818391793881
 31
0.0
  0
ARC
  5
401C0
  8
OBJ
  6
CONTINUOUS
 10
47.459704660643638
 20
1.1984818391793881
 30
0.0
 40
0.0151100703786646
 50
179.9999999999971
 51
270.0
  0
ARC
  5
401C1
  8
OBJ
  6
CONTINUOUS
 10
47.459704660643638
 20
1.249647142532158
 30
0.0
 40
0.0151100703786646
 50
90.0
 51
180.0
  0
ARC
  5
401C2
  8
OBJ
  6
CONTINUOUS
 10
48.213813905751081
 20
1.088242448970838
 30
0.0
 40
0.0120880563029317
 50
0.0
 51
90.0
  0
ARC
  5
401C3
  8
OBJ
  6
CONTINUOUS
 10
48.221799004147393
 20
1.202903440071553
 30
0.0
 40
0.0120880563029317
 50
270.0
 51
0.0
  0
ARC
  5
401C4
  8
OBJ
  6
CONTINUOUS
 10
48.221799004147393
 20
1.306312429415553
 30
0.0
 40
0.0120880563029317
 50
0.0
 51
90.0
  0
LINE
  5
401C5
  8
OBJ
  6
CONTINUOUS
 10
48.233887060450343
 20
1.202903440071553
 30
0.0
 11
48.233887060450343
 21
1.306312429415553
 31
0.0
  0
LINE
  5
401C6
  8
OBJ
  6
CONTINUOUS
 10
48.165815550245917
 20
1.1014337716340381
 30
0.0
 11
48.165815550245917
 21
1.19081538376862
 31
0.0
  0
ARC
  5
401C7
  8
OBJ
  6
CONTINUOUS
 10
48.12012294997426
 20
1.088242448970838
 30
0.0
 40
0.0120880563029317
 50
90.0
 51
180.0
  0
ARC
  5
401C8
  8
OBJ
  6
CONTINUOUS
 10
48.109832096344448
 20
1.202903440071553
 30
0.0
 40
0.0120880563029317
 50
180.0
 51
270.0
  0
ARC
  5
401C9
  8
OBJ
  6
CONTINUOUS
 10
48.109832096344448
 20
1.306312429415545
 30
0.0
 40
0.0120880563029317
 50
90.0
 51
180.0
  0
LINE
  5
401CA
  8
OBJ
  6
CONTINUOUS
 10
48.097744040041512
 20
1.306312429415553
 30
0.0
 11
48.097744040041512
 21
1.202903440071553
 31
0.0
  0
LINE
  5
401CB
  8
OBJ
  6
CONTINUOUS
 10
47.954865463957461
 20
1.2647572129108191
 30
0.0
 11
47.814994097116973
 21
1.2647572129108191
 31
0.0
  0
LINE
  5
401CC
  8
OBJ
  6
CONTINUOUS
 10
47.814994097116973
 20
1.1833717688007179
 30
0.0
 11
47.954865463957447
 21
1.1833717688007179
 31
0.0
  0
TEXT
  5
401CD
  8
OBJ
  6
CONTINUOUS
 10
47.837119596437169
 20
1.194981890407036
 30
0.0
 40
0.06
  1
Vc
  7
SIMPLEX
  0
ARC
  5
401CE
  8
OBJ
  6
CONTINUOUS
 10
47.954865463957447
 20
1.1984818391793881
 30
0.0
 40
0.0151100703786646
 50
270.0
 51
359.9999999999971
  0
ARC
  5
401CF
  8
OBJ
  6
CONTINUOUS
 10
47.954865463957461
 20
1.249647142532158
 30
0.0
 40
0.0151100703786646
 50
0.0
 51
90.0
  0
LINE
  5
401D0
  8
OBJ
  6
CONTINUOUS
 10
47.969975534336122
 20
1.1984818391793881
 30
0.0
 11
47.969975534336122
 21
1.249647142532158
 31
0.0
  0
LINE
  5
401D1
  8
OBJ
  6
CONTINUOUS
 10
47.799884026738319
 20
1.249647142532158
 30
0.0
 11
47.799884026738319
 21
1.1984818391793881
 31
0.0
  0
LINE
  5
401D2
  8
OBJ
  6
CONTINUOUS
 10
47.791960395907672
 20
1.1984818391793881
 30
0.0
 11
47.791960395907672
 21
1.249647142532158
 31
0.0
  0
ARC
  5
401D3
  8
OBJ
  6
CONTINUOUS
 10
47.776850325529011
 20
1.249647142532158
 30
0.0
 40
0.0151100703786646
 50
0.0
 51
90.0
  0
ARC
  5
401D4
  8
OBJ
  6
CONTINUOUS
 10
47.776850325528997
 20
1.1984818391793881
 30
0.0
 40
0.0151100703786646
 50
270.0
 51
359.9999999999971
  0
LINE
  5
401D5
  8
OBJ
  6
CONTINUOUS
 10
47.636978958688523
 20
1.1833717688007179
 30
0.0
 11
47.776850325528997
 21
1.1833717688007179
 31
0.0
  0
LINE
  5
401D6
  8
OBJ
  6
CONTINUOUS
 10
47.776850325529011
 20
1.2647572129108191
 30
0.0
 11
47.636978958688523
 21
1.2647572129108191
 31
0.0
  0
TEXT
  5
401D7
  8
OBJ
  6
CONTINUOUS
 10
47.65910445800872
 20
1.194981890407036
 30
0.0
 40
0.06
  1
Vb
  7
SIMPLEX
  0
ARC
  5
401D8
  8
OBJ
  6
CONTINUOUS
 10
47.814994097116973
 20
1.249647142532158
 30
0.0
 40
0.0151100703786646
 50
90.0
 51
180.0
  0
ARC
  5
401D9
  8
OBJ
  6
CONTINUOUS
 10
47.814994097116973
 20
1.1984818391793881
 30
0.0
 40
0.0151100703786646
 50
179.9999999999971
 51
270.0
  0
LINE
  5
401DA
  8
OBJ
  6
CONTINUOUS
 10
48.213813905751081
 20
1.1003305052737671
 30
0.0
 11
48.12012294997426
 21
1.1003305052737671
 31
0.0
  0
LINE
  5
401DB
  8
OBJ
  6
CONTINUOUS
 10
48.109832096344448
 20
1.19081538376862
 30
0.0
 11
48.221799004147393
 21
1.19081538376862
 31
0.0
  0
LINE
  5
401DC
  8
OBJ
  6
CONTINUOUS
 10
48.221799004147393
 20
1.318400485718483
 30
0.0
 11
48.109832096344448
 21
1.318400485718483
 31
0.0
  0
TEXT
  5
401DD
  8
OBJ
  6
CONTINUOUS
 10
48.13476782681002
 20
1.227747979935077
 30
0.0
 40
0.0568138646237789
  1
Ia
  7
SIMPLEX
  0
LINE
  5
401DE
  8
OBJ
  6
CONTINUOUS
 10
47.489047251655521
 20
1.014499126994646
 30
0.0
 11
47.561197311790806
 21
1.050322156160834
 31
0.0
  0
CIRCLE
  5
401DF
  8
OBJ
  6
CONTINUOUS
 10
47.525122281723156
 20
1.032410641577737
 30
0.0
 40
0.0402769183160991
  0
LINE
  5
401E0
  8
OBJ
  6
CONTINUOUS
 10
47.672798324501557
 20
1.014499126994646
 30
0.0
 11
47.744948384636842
 21
1.050322156160834
 31
0.0
  0
LINE
  5
401E1
  8
OBJ
  6
CONTINUOUS
 10
48.203358931055682
 20
0.8971027898797157
 30
0.0
 11
48.203358931055682
 21
0.9404541519133111
 31
0.0
  0
ARC
  5
401E2
  8
OBJ
  6
CONTINUOUS
 10
48.213813905751081
 20
1.0277915446141881
 30
0.0
 40
0.0120880563029317
 50
270.0
 51
0.0
  0
LINE
  5
401E3
  8
OBJ
  6
CONTINUOUS
 10
47.849064203496802
 20
1.014499126994646
 30
0.0
 11
47.921214263632081
 21
1.050322156160834
 31
0.0
  0
LINE
  5
401E4
  8
OBJ
  6
CONTINUOUS
 10
48.128272169436173
 20
0.9404541519133111
 30
0.0
 11
48.128272169436173
 21
0.8971027898797157
 31
0.0
  0
LINE
  5
401E5
  8
OBJ
  6
CONTINUOUS
 10
48.128272169436173
 20
0.8971027898797157
 30
0.0
 11
48.165815550245902
 21
0.8754271088629188
 31
0.0
  0
ARC
  5
401E6
  8
OBJ
  6
CONTINUOUS
 10
48.12012294997426
 20
1.0277915446141961
 30
0.0
 40
0.0120880563029317
 50
180.0
 51
269.99999999999972
  0
LINE
  5
401E7
  8
OBJ
  6
CONTINUOUS
 10
48.165815550245902
 20
0.9621298329301133
 30
0.0
 11
48.128272169436173
 21
0.9404541519133111
 31
0.0
  0
CIRCLE
  5
401E8
  8
OBJ
  6
CONTINUOUS
 10
47.885139233564438
 20
1.032410641577737
 30
0.0
 40
0.0402769183160991
  0
CIRCLE
  5
401E9
  8
OBJ
  6
CONTINUOUS
 10
47.708873354569207
 20
1.032410641577737
 30
0.0
 40
0.0402769183160991
  0
CIRCLE
  5
401EA
  8
OBJ
  6
CONTINUOUS
 10
48.165815550245917
 20
0.9187784708965125
 30
0.0
 40
0.028168665929907
  0
LINE
  5
401EB
  8
OBJ
  6
CONTINUOUS
 10
48.165815550245902
 20
0.8754271088629188
 30
0.0
 11
48.203358931055682
 21
0.8971027898797157
 31
0.0
  0
LINE
  5
401EC
  8
OBJ
  6
CONTINUOUS
 10
48.12012294997426
 20
1.0157034883112579
 30
0.0
 11
48.213813905751081
 21
1.0157034883112579
 31
0.0
  0
LINE
  5
401ED
  8
OBJ
  6
CONTINUOUS
 10
48.203358931055682
 20
0.9404541519133111
 30
0.0
 11
48.165815550245902
 21
0.9621298329301133
 31
0.0
  0
LINE
  5
401EE
  8
OBJ
  6
CONTINUOUS
 10
48.108034893671331
 20
1.088242448970838
 30
0.0
 11
48.108034893671331
 21
1.0277915446141961
 31
0.0
  0
TEXT
  5
401EF
  8
OBJ
  6
CONTINUOUS
 10
48.130252903270978
 20
1.0357482500730619
 30
0.0
 40
0.05
  1
LO
  7
SIMPLEX
  0
LINE
  5
401F0
  8
OBJ
  6
CONTINUOUS
 10
48.22590196205401
 20
1.0277915446141881
 30
0.0
 11
48.22590196205401
 21
1.088242448970838
 31
0.0
  0
LINE
  5
401F1
  8
OBJ
  6
CONTINUOUS
 62
     7
 10
47.796677029160222
 20
0.8933979940940197
 30
0.0
 11
47.796677029160222
 21
1.171423289061444
 31
0.0
  0
LINE
  5
401F2
  8
OBJ
  6
CONTINUOUS
 62
     7
 10
47.972942908155467
 20
0.8933979940940197
 30
0.0
 11
47.972942908155467
 21
1.171423289061444
 31
0.0
  0
LINE
  5
401F3
  8
OBJ
  6
CONTINUOUS
 62
     7
 10
47.435689907649817
 20
0.8933979940940197
 30
0.0
 11
47.435689907649817
 21
1.171423289061444
 31
0.0
  0
LINE
  5
401F4
  8
OBJ
  6
CONTINUOUS
 62
     7
 10
47.619440889994912
 20
0.8933979940940197
 30
0.0
 11
47.619440889994912
 21
1.171423289061444
 31
0.0
  0
LINE
  5
401F5
  8
OBJ
  6
CONTINUOUS
 10
48.59337887366312
 20
1.1003305052737671
 30
0.0
 11
48.499687917886298
 21
1.1003305052737671
 31
0.0
  0
LINE
  5
401F6
  8
OBJ
  6
CONTINUOUS
 10
48.601363972059431
 20
1.318400485718483
 30
0.0
 11
48.489397064256501
 21
1.318400485718483
 31
0.0
  0
LINE
  5
401F7
  8
OBJ
  6
CONTINUOUS
 10
48.489397064256501
 20
1.19081538376862
 30
0.0
 11
48.601363972059431
 21
1.19081538376862
 31
0.0
  0
ARC
  5
401F8
  8
OBJ
  6
CONTINUOUS
 10
48.499687917886298
 20
1.088242448970838
 30
0.0
 40
0.0120880563029317
 50
90.0
 51
180.0
  0
ARC
  5
401F9
  8
OBJ
  6
CONTINUOUS
 10
48.489397064256501
 20
1.306312429415545
 30
0.0
 40
0.0120880563029317
 50
90.0
 51
180.0
  0
ARC
  5
401FA
  8
OBJ
  6
CONTINUOUS
 10
48.489397064256501
 20
1.202903440071553
 30
0.0
 40
0.0120880563029317
 50
180.0
 51
270.0
  0
LINE
  5
401FB
  8
OBJ
  6
CONTINUOUS
 10
48.41568444601004
 20
1.217574028570227
 30
0.0
 11
48.41568444601004
 21
1.2780249329268769
 31
0.0
  0
LINE
  5
401FC
  8
OBJ
  6
CONTINUOUS
 10
48.477309007953551
 20
1.306312429415553
 30
0.0
 11
48.477309007953551
 21
1.202903440071553
 31
0.0
  0
CIRCLE
  5
401FD
  8
OBJ
  6
CONTINUOUS
 10
48.355598034201961
 20
1.118560954852551
 30
0.0
 40
0.028168665929907
  0
LINE
  5
401FE
  8
OBJ
  6
CONTINUOUS
 10
48.318054653392188
 20
1.1402366358693481
 30
0.0
 11
48.318054653392188
 21
1.0968852738357491
 31
0.0
  0
LINE
  5
401FF
  8
OBJ
  6
CONTINUOUS
 10
48.393141415011691
 20
1.0968852738357491
 30
0.0
 11
48.393141415011691
 21
1.1402366358693481
 31
0.0
  0
LINE
  5
40200
  8
OBJ
  6
CONTINUOUS
 10
48.393141415011691
 20
1.1402366358693481
 30
0.0
 11
48.355598034201947
 21
1.161912316886146
 31
0.0
  0
LINE
  5
40201
  8
OBJ
  6
CONTINUOUS
 10
48.309905433930297
 20
1.205485972267297
 30
0.0
 11
48.403596389707097
 21
1.205485972267297
 31
0.0
  0
LINE
  5
40202
  8
OBJ
  6
CONTINUOUS
 10
48.403596389707097
 20
1.2901129892298071
 30
0.0
 11
48.309905433930297
 21
1.2901129892298071
 31
0.0
  0
TEXT
  5
40203
  8
OBJ
  6
CONTINUOUS
 10
48.320035387227009
 20
1.225530734029102
 30
0.0
 40
0.05
  1
HI
  7
SIMPLEX
  0
LINE
  5
40204
  8
OBJ
  6
CONTINUOUS
 10
48.355598034201947
 20
1.161912316886146
 30
0.0
 11
48.318054653392188
 21
1.1402366358693481
 31
0.0
  0
ARC
  5
40205
  8
OBJ
  6
CONTINUOUS
 10
48.309905433930297
 20
1.217574028570235
 30
0.0
 40
0.0120880563029317
 50
180.0
 51
269.99999999999972
  0
ARC
  5
40206
  8
OBJ
  6
CONTINUOUS
 10
48.309905433930297
 20
1.2780249329268769
 30
0.0
 40
0.0120880563029317
 50
90.0
 51
180.0
  0
LINE
  5
40207
  8
OBJ
  6
CONTINUOUS
 10
48.297817377627347
 20
1.2780249329268769
 30
0.0
 11
48.297817377627347
 21
1.217574028570235
 31
0.0
  0
ARC
  5
40208
  8
OBJ
  6
CONTINUOUS
 10
48.403596389707097
 20
1.217574028570227
 30
0.0
 40
0.0120880563029317
 50
270.0
 51
0.0
  0
ARC
  5
40209
  8
OBJ
  6
CONTINUOUS
 10
48.403596389707097
 20
1.2780249329268769
 30
0.0
 40
0.0120880563029317
 50
0.0
 51
90.0
  0
LINE
  5
4020A
  8
OBJ
  6
CONTINUOUS
 10
49.076882387808737
 20
1.1402366358693481
 30
0.0
 11
49.076882387808737
 21
1.0968852738357491
 31
0.0
  0
LINE
  5
4020B
  8
OBJ
  6
CONTINUOUS
 10
48.92494548607003
 20
1.1014337716340381
 30
0.0
 11
48.92494548607003
 21
1.19081538376862
 31
0.0
  0
ARC
  5
4020C
  8
OBJ
  6
CONTINUOUS
 10
48.97294384157518
 20
1.088242448970838
 30
0.0
 40
0.0120880563029317
 50
0.0
 51
90.0
  0
TEXT
  5
4020D
  8
OBJ
  6
CONTINUOUS
 10
48.893897762634133
 20
1.227747979935077
 30
0.0
 40
0.0568138646237789
  1
Ic
  7
SIMPLEX
  0
LINE
  5
4020E
  8
OBJ
  6
CONTINUOUS
 10
49.114425768618489
 20
1.161912316886146
 30
0.0
 11
49.076882387808737
 21
1.1402366358693481
 31
0.0
  0
ARC
  5
4020F
  8
OBJ
  6
CONTINUOUS
 10
48.980928939971498
 20
1.202903440071553
 30
0.0
 40
0.0120880563029317
 50
270.0
 51
0.0
  0
ARC
  5
40210
  8
OBJ
  6
CONTINUOUS
 10
48.980928939971498
 20
1.306312429415553
 30
0.0
 40
0.0120880563029317
 50
0.0
 51
90.0
  0
LINE
  5
40211
  8
OBJ
  6
CONTINUOUS
 10
48.993016996274449
 20
1.202903440071553
 30
0.0
 11
48.993016996274449
 21
1.306312429415553
 31
0.0
  0
ARC
  5
40212
  8
OBJ
  6
CONTINUOUS
 10
49.069035369754403
 20
1.217574028570235
 30
0.0
 40
0.0120880563029317
 50
180.0
 51
269.99999999999972
  0
ARC
  5
40213
  8
OBJ
  6
CONTINUOUS
 10
49.069035369754403
 20
1.2780249329268769
 30
0.0
 40
0.0120880563029317
 50
90.0
 51
180.0
  0
LINE
  5
40214
  8
OBJ
  6
CONTINUOUS
 10
49.05694731345146
 20
1.2780249329268769
 30
0.0
 11
49.05694731345146
 21
1.217574028570235
 31
0.0
  0
ARC
  5
40215
  8
OBJ
  6
CONTINUOUS
 10
48.879252885798358
 20
1.088242448970838
 30
0.0
 40
0.0120880563029317
 50
90.0
 51
180.0
  0
ARC
  5
40216
  8
OBJ
  6
CONTINUOUS
 10
48.78316135761915
 20
1.2780249329268769
 30
0.0
 40
0.0120880563029317
 50
0.0
 51
90.0
  0
ARC
  5
40217
  8
OBJ
  6
CONTINUOUS
 10
48.78316135761915
 20
1.217574028570227
 30
0.0
 40
0.0120880563029317
 50
270.0
 51
0.0
  0
LINE
  5
40218
  8
OBJ
  6
CONTINUOUS
 10
48.795249413922079
 20
1.217574028570227
 30
0.0
 11
48.795249413922079
 21
1.2780249329268769
 31
0.0
  0
ARC
  5
40219
  8
OBJ
  6
CONTINUOUS
 10
48.868962032168547
 20
1.202903440071553
 30
0.0
 40
0.0120880563029317
 50
180.0
 51
270.0
  0
ARC
  5
4021A
  8
OBJ
  6
CONTINUOUS
 10
48.868962032168547
 20
1.306312429415545
 30
0.0
 40
0.0120880563029317
 50
90.0
 51
180.0
  0
LINE
  5
4021B
  8
OBJ
  6
CONTINUOUS
 10
48.856873975865611
 20
1.306312429415553
 30
0.0
 11
48.856873975865611
 21
1.202903440071553
 31
0.0
  0
CIRCLE
  5
4021C
  8
OBJ
  6
CONTINUOUS
 10
48.735163002114007
 20
1.118560954852551
 30
0.0
 40
0.028168665929907
  0
LINE
  5
4021D
  8
OBJ
  6
CONTINUOUS
 10
48.735163002114007
 20
1.161912316886146
 30
0.0
 11
48.697619621304248
 21
1.1402366358693481
 31
0.0
  0
TEXT
  5
4021E
  8
OBJ
  6
CONTINUOUS
 10
48.699600355139047
 20
1.225530734029102
 30
0.0
 40
0.05
  1
HI
  7
SIMPLEX
  0
LINE
  5
4021F
  8
OBJ
  6
CONTINUOUS
 10
48.697619621304248
 20
1.1402366358693481
 30
0.0
 11
48.697619621304248
 21
1.0968852738357491
 31
0.0
  0
LINE
  5
40220
  8
OBJ
  6
CONTINUOUS
 10
48.54538051815797
 20
1.1014337716340381
 30
0.0
 11
48.54538051815797
 21
1.19081538376862
 31
0.0
  0
ARC
  5
40221
  8
OBJ
  6
CONTINUOUS
 10
48.59337887366312
 20
1.088242448970838
 30
0.0
 40
0.0120880563029317
 50
0.0
 51
90.0
  0
LINE
  5
40222
  8
OBJ
  6
CONTINUOUS
 10
48.613452028362381
 20
1.202903440071553
 30
0.0
 11
48.613452028362381
 21
1.306312429415553
 31
0.0
  0
ARC
  5
40223
  8
OBJ
  6
CONTINUOUS
 10
48.601363972059431
 20
1.306312429415553
 30
0.0
 40
0.0120880563029317
 50
0.0
 51
90.0
  0
ARC
  5
40224
  8
OBJ
  6
CONTINUOUS
 10
48.601363972059431
 20
1.202903440071553
 30
0.0
 40
0.0120880563029317
 50
270.0
 51
0.0
  0
LINE
  5
40225
  8
OBJ
  6
CONTINUOUS
 10
48.677382345539392
 20
1.2780249329268769
 30
0.0
 11
48.677382345539392
 21
1.217574028570235
 31
0.0
  0
ARC
  5
40226
  8
OBJ
  6
CONTINUOUS
 10
48.689470401842343
 20
1.2780249329268769
 30
0.0
 40
0.0120880563029317
 50
90.0
 51
180.0
  0
ARC
  5
40227
  8
OBJ
  6
CONTINUOUS
 10
48.689470401842343
 20
1.217574028570235
 30
0.0
 40
0.0120880563029317
 50
180.0
 51
269.99999999999972
  0
LINE
  5
40228
  8
OBJ
  6
CONTINUOUS
 10
48.772706382923758
 20
1.0968852738357491
 30
0.0
 11
48.772706382923758
 21
1.1402366358693481
 31
0.0
  0
LINE
  5
40229
  8
OBJ
  6
CONTINUOUS
 10
48.772706382923758
 20
1.1402366358693481
 30
0.0
 11
48.735163002114007
 21
1.161912316886146
 31
0.0
  0
LINE
  5
4022A
  8
OBJ
  6
CONTINUOUS
 10
48.78316135761915
 20
1.2901129892298071
 30
0.0
 11
48.689470401842343
 21
1.2901129892298071
 31
0.0
  0
LINE
  5
4022B
  8
OBJ
  6
CONTINUOUS
 10
48.689470401842343
 20
1.205485972267297
 30
0.0
 11
48.78316135761915
 21
1.205485972267297
 31
0.0
  0
TEXT
  5
4022C
  8
OBJ
  6
CONTINUOUS
 10
48.514332794722058
 20
1.227747979935077
 30
0.0
 40
0.0568138646237789
  1
Ib
  7
SIMPLEX
  0
LINE
  5
4022D
  8
OBJ
  6
CONTINUOUS
 10
48.97294384157518
 20
1.1003305052737671
 30
0.0
 11
48.879252885798358
 21
1.1003305052737671
 31
0.0
  0
LINE
  5
4022E
  8
OBJ
  6
CONTINUOUS
 10
48.868962032168547
 20
1.19081538376862
 30
0.0
 11
48.980928939971498
 21
1.19081538376862
 31
0.0
  0
LINE
  5
4022F
  8
OBJ
  6
CONTINUOUS
 10
48.980928939971498
 20
1.318400485718483
 30
0.0
 11
48.868962032168547
 21
1.318400485718483
 31
0.0
  0
LINE
  5
40230
  8
OBJ
  6
CONTINUOUS
 10
48.499687917886298
 20
1.0157034883112579
 30
0.0
 11
48.59337887366312
 21
1.0157034883112579
 31
0.0
  0
ARC
  5
40231
  8
OBJ
  6
CONTINUOUS
 10
48.499687917886298
 20
1.0277915446141961
 30
0.0
 40
0.0120880563029317
 50
180.0
 51
269.99999999999972
  0
CIRCLE
  5
40232
  8
OBJ
  6
CONTINUOUS
 10
48.92494548607003
 20
0.9187784708965125
 30
0.0
 40
0.028168665929907
  0
LINE
  5
40233
  8
OBJ
  6
CONTINUOUS
 10
48.962488866879781
 20
0.8971027898797157
 30
0.0
 11
48.962488866879781
 21
0.9404541519133111
 31
0.0
  0
LINE
  5
40234
  8
OBJ
  6
CONTINUOUS
 10
48.92494548607003
 20
0.8754271088629188
 30
0.0
 11
48.962488866879781
 21
0.8971027898797157
 31
0.0
  0
LINE
  5
40235
  8
OBJ
  6
CONTINUOUS
 10
48.962488866879781
 20
0.9404541519133111
 30
0.0
 11
48.92494548607003
 21
0.9621298329301133
 31
0.0
  0
ARC
  5
40236
  8
OBJ
  6
CONTINUOUS
 10
48.97294384157518
 20
1.0277915446141881
 30
0.0
 40
0.0120880563029317
 50
270.0
 51
0.0
  0
LINE
  5
40237
  8
OBJ
  6
CONTINUOUS
 10
48.887402105260279
 20
0.9404541519133111
 30
0.0
 11
48.887402105260279
 21
0.8971027898797157
 31
0.0
  0
ARC
  5
40238
  8
OBJ
  6
CONTINUOUS
 10
48.879252885798358
 20
1.0277915446141961
 30
0.0
 40
0.0120880563029317
 50
180.0
 51
269.99999999999972
  0
LINE
  5
40239
  8
OBJ
  6
CONTINUOUS
 10
48.582923898967742
 20
0.8971027898797157
 30
0.0
 11
48.582923898967742
 21
0.9404541519133111
 31
0.0
  0
LINE
  5
4023A
  8
OBJ
  6
CONTINUOUS
 10
48.545380518157977
 20
0.8754271088629188
 30
0.0
 11
48.582923898967742
 21
0.8971027898797157
 31
0.0
  0
ARC
  5
4023B
  8
OBJ
  6
CONTINUOUS
 10
48.59337887366312
 20
1.0277915446141881
 30
0.0
 40
0.0120880563029317
 50
270.0
 51
0.0
  0
LINE
  5
4023C
  8
OBJ
  6
CONTINUOUS
 10
48.582923898967742
 20
0.9404541519133111
 30
0.0
 11
48.545380518157977
 21
0.9621298329301133
 31
0.0
  0
LINE
  5
4023D
  8
OBJ
  6
CONTINUOUS
 10
48.507837137348233
 20
0.9404541519133111
 30
0.0
 11
48.507837137348233
 21
0.8971027898797157
 31
0.0
  0
CIRCLE
  5
4023E
  8
OBJ
  6
CONTINUOUS
 10
48.54538051815797
 20
0.9187784708965125
 30
0.0
 40
0.028168665929907
  0
LINE
  5
4023F
  8
OBJ
  6
CONTINUOUS
 10
48.507837137348233
 20
0.8971027898797157
 30
0.0
 11
48.545380518157977
 21
0.8754271088629188
 31
0.0
  0
LINE
  5
40240
  8
OBJ
  6
CONTINUOUS
 10
48.545380518157977
 20
0.9621298329301133
 30
0.0
 11
48.507837137348233
 21
0.9404541519133111
 31
0.0
  0
LINE
  5
40241
  8
OBJ
  6
CONTINUOUS
 10
48.887402105260279
 20
0.8971027898797157
 30
0.0
 11
48.92494548607003
 21
0.8754271088629188
 31
0.0
  0
LINE
  5
40242
  8
OBJ
  6
CONTINUOUS
 10
48.879252885798358
 20
1.0157034883112579
 30
0.0
 11
48.97294384157518
 21
1.0157034883112579
 31
0.0
  0
LINE
  5
40243
  8
OBJ
  6
CONTINUOUS
 10
48.92494548607003
 20
0.9621298329301133
 30
0.0
 11
48.887402105260279
 21
0.9404541519133111
 31
0.0
  0
TEXT
  5
40244
  8
OBJ
  6
CONTINUOUS
 10
48.889382839095092
 20
1.0357482500730619
 30
0.0
 40
0.05
  1
LO
  7
SIMPLEX
  0
LINE
  5
40245
  8
OBJ
  6
CONTINUOUS
 10
48.867164829495437
 20
1.088242448970838
 30
0.0
 11
48.867164829495437
 21
1.0277915446141961
 31
0.0
  0
LINE
  5
40246
  8
OBJ
  6
CONTINUOUS
 10
49.076882387808737
 20
1.0968852738357491
 30
0.0
 11
49.114425768618489
 21
1.07520959281895
 31
0.0
  0
LINE
  5
40247
  8
OBJ
  6
CONTINUOUS
 10
48.985031897878109
 20
1.0277915446141881
 30
0.0
 11
48.985031897878109
 21
1.088242448970838
 31
0.0
  0
LINE
  5
40248
  8
OBJ
  6
CONTINUOUS
 10
48.697619621304248
 20
1.0968852738357491
 30
0.0
 11
48.735163002114007
 21
1.07520959281895
 31
0.0
  0
LINE
  5
40249
  8
OBJ
  6
CONTINUOUS
 10
48.487599861583369
 20
1.088242448970838
 30
0.0
 11
48.487599861583369
 21
1.0277915446141961
 31
0.0
  0
TEXT
  5
4024A
  8
OBJ
  6
CONTINUOUS
 10
48.509817871183017
 20
1.0357482500730619
 30
0.0
 40
0.05
  1
LO
  7
SIMPLEX
  0
LINE
  5
4024B
  8
OBJ
  6
CONTINUOUS
 10
48.605466929966063
 20
1.0277915446141881
 30
0.0
 11
48.605466929966063
 21
1.088242448970838
 31
0.0
  0
LINE
  5
4024C
  8
OBJ
  6
CONTINUOUS
 10
48.735163002114007
 20
1.07520959281895
 30
0.0
 11
48.772706382923758
 21
1.0968852738357491
 31
0.0
  0
CIRCLE
  5
4024D
  8
OBJ
  6
CONTINUOUS
 62
     7
 10
48.735163002114007
 20
1.118560954852551
 30
0.0
 40
0.0779075228723947
  0
LINE
  5
4024E
  8
OBJ
  6
CONTINUOUS
 10
48.355598034201947
 20
1.07520959281895
 30
0.0
 11
48.393141415011691
 21
1.0968852738357491
 31
0.0
  0
LINE
  5
4024F
  8
OBJ
  6
CONTINUOUS
 10
48.318054653392188
 20
1.0968852738357491
 30
0.0
 11
48.355598034201947
 21
1.07520959281895
 31
0.0
  0
CIRCLE
  5
40250
  8
OBJ
  6
CONTINUOUS
 62
     7
 10
48.355598034201961
 20
1.118560954852551
 30
0.0
 40
0.0779075228723947
  0
ARC
  5
40251
  8
OBJ
  6
HIDDEN
 62
     7
 10
49.095164045697068
 20
1.757814049667537
 30
0.0
 40
0.0398905857996746
 50
90.0
 51
270.0
  0
CIRCLE
  5
40252
  8
OBJ
  6
CONTINUOUS
 62
     7
 10
47.366269792970272
 20
2.055482436127229
 30
0.0
 40
0.0212447589524025
  0
LINE
  5
40253
  8
OBJ
  6
CONTINUOUS
 62
     7
 10
47.407671385807816
 20
2.6311761175543511
 30
0.0
 11
47.178829369922951
 21
2.6311761175543511
 31
0.0
  0
ARC
  5
40254
  8
OBJ
  6
CONTINUOUS
 62
     7
 10
46.572235594571453
 20
2.2609793932770681
 30
0.0
 40
0.0755503518933231
 50
90.0
 51
180.0
  0
CIRCLE
  5
40255
  8
OBJ
  6
CONTINUOUS
 10
46.745548101814727
 20
2.1612529287778841
 30
0.0
 40
0.0156178499896015
  0
LINE
  5
40256
  8
OBJ
  6
CONTINUOUS
 62
     7
 10
46.745548101814727
 20
2.1213623429782098
 30
0.0
 11
46.774214951003231
 21
2.1213623429782098
 31
0.0
  0
LINE
  5
40257
  8
OBJ
  6
CONTINUOUS
 62
     7
 10
46.745548101814727
 20
2.201143514577562
 30
0.0
 11
46.774214951003231
 21
2.201143514577562
 31
0.0
  0
ARC
  5
40258
  8
OBJ
  6
CONTINUOUS
 62
     7
 10
46.745548101814727
 20
2.1612529287778841
 30
0.0
 40
0.0398905857996746
 50
90.0
 51
270.0
  0
LINE
  5
40259
  8
OBJ
  6
CONTINUOUS
 62
     7
 10
47.101843561343649
 20
2.1098786894904231
 30
0.0
 11
47.101843561343649
 21
2.2156491821410791
 31
0.0
  0
CIRCLE
  5
4025A
  8
OBJ
  6
CONTINUOUS
 62
     7
 10
47.275609370698298
 20
2.055482436127229
 30
0.0
 40
0.0212447589524025
  0
CIRCLE
  5
4025B
  8
OBJ
  6
CONTINUOUS
 62
     7
 10
47.184948948426303
 20
2.055482436127229
 30
0.0
 40
0.0212447589524025
  0
ARC
  5
4025C
  8
OBJ
  6
CONTINUOUS
 62
     7
 10
47.044727495312287
 20
2.1612529287778841
 30
0.0
 40
0.0398905857996746
 50
270.0
 51
90.0
  0
LINE
  5
4025D
  8
OBJ
  6
CONTINUOUS
 62
     7
 10
47.016060646123798
 20
2.1213623429782098
 30
0.0
 11
47.044727495312287
 21
2.1213623429782098
 31
0.0
  0
CIRCLE
  5
4025E
  8
OBJ
  6
CONTINUOUS
 10
47.044727495312287
 20
2.1612529287778841
 30
0.0
 40
0.0156178499896015
  0
ARC
  5
4025F
  8
OBJ
  6
CONTINUOUS
 62
     7
 10
46.978243185646171
 20
2.134054802096288
 30
0.0
 40
0.0398905857996746
 50
270.0
 51
341.44699546497878
  0
LINE
  5
40260
  8
OBJ
  6
CONTINUOUS
 62
     7
 10
47.016060646123798
 20
2.201143514577562
 30
0.0
 11
47.044727495312287
 21
2.201143514577562
 31
0.0
  0
ARC
  5
40261
  8
OBJ
  6
CONTINUOUS
 62
     7
 10
46.978243185646171
 20
2.188451055459474
 30
0.0
 40
0.0398905857996746
 50
18.553004535021518
 51
90.0
  0
CIRCLE
  5
40262
  8
OBJ
  6
CONTINUOUS
 10
46.927186103449529
 20
2.193543324951194
 30
0.0
 40
0.0135952901026457
  0
CIRCLE
  5
40263
  8
OBJ
  6
CONTINUOUS
 10
46.898141614381679
 20
2.193543324951194
 30
0.0
 40
0.0135952901026457
  0
CIRCLE
  5
40264
  8
OBJ
  6
CONTINUOUS
 10
46.86724321645125
 20
2.193543324951194
 30
0.0
 40
0.0135952901026457
  0
CIRCLE
  5
40265
  8
OBJ
  6
CONTINUOUS
 10
46.834490945277828
 20
2.193543324951194
 30
0.0
 40
0.0135952901026457
  0
LINE
  5
40266
  8
OBJ
  6
CONTINUOUS
 10
46.813347170893458
 20
2.209018543040421
 30
0.0
 11
46.823041552680962
 21
2.1111052869866742
 31
0.0
  0
ARC
  5
40267
  8
OBJ
  6
CONTINUOUS
 62
     7
 10
46.81203241148085
 20
2.134054802096288
 30
0.0
 40
0.0398905857996746
 50
198.5530045350211
 51
270.0
  0
LINE
  5
40268
  8
OBJ
  6
CONTINUOUS
 62
     7
 10
46.947720843481271
 20
2.0509494150136338
 30
0.0
 11
46.841950350830622
 21
2.0509494150136338
 31
0.0
  0
LINE
  5
40269
  8
OBJ
  6
CONTINUOUS
 62
     7
 10
46.95515378323126
 20
2.1002082444480781
 30
0.0
 11
46.835070791700787
 21
2.1002082444480781
 31
0.0
  0
CIRCLE
  5
4026A
  8
OBJ
  6
CONTINUOUS
 10
46.910500941496231
 20
2.1330281601034899
 30
0.0
 40
0.0129773264183839
  0
CIRCLE
  5
4026B
  8
OBJ
  6
CONTINUOUS
 10
46.878984597691328
 20
2.1330281601034899
 30
0.0
 40
0.0129773264183839
  0
CIRCLE
  5
4026C
  8
OBJ
  6
CONTINUOUS
 10
46.842524508792792
 20
2.1330281601034899
 30
0.0
 40
0.0129773264183839
  0
ARC
  5
4026D
  8
OBJ
  6
CONTINUOUS
 10
46.835070791700787
 20
2.1122963007510132
 30
0.0
 40
0.0120880563029317
 50
185.65442082264019
 51
270.0
  0
CIRCLE
  5
4026E
  8
OBJ
  6
CONTINUOUS
 10
46.948196975573083
 20
2.1330281601034899
 30
0.0
 40
0.0129773264183839
  0
ARC
  5
4026F
  8
OBJ
  6
CONTINUOUS
 10
46.95515378323126
 20
2.1122963007510132
 30
0.0
 40
0.0120880563029317
 50
270.00000000000023
 51
354.61068824002541
  0
ARC
  5
40270
  8
OBJ
  6
CONTINUOUS
 62
     7
 10
46.81203241148085
 20
2.188451055459474
 30
0.0
 40
0.0398905857996746
 50
90.0
 51
161.44699546497839
  0
LINE
  5
40271
  8
OBJ
  6
CONTINUOUS
 62
     7
 10
46.964390882858979
 20
2.2222976131076799
 30
0.0
 11
46.825376409913282
 21
2.2222976131076901
 31
0.0
  0
ARC
  5
40272
  8
OBJ
  6
CONTINUOUS
 10
46.825376409913282
 20
2.2102095568047599
 30
0.0
 40
0.0120880563029317
 50
89.999999999997044
 51
185.65442082263891
  0
LINE
  5
40273
  8
OBJ
  6
CONTINUOUS
 10
46.812032411480857
 20
2.2283416412591599
 30
0.0
 11
46.812032411480857
 21
2.2283416412591599
 31
0.0
  0
LINE
  5
40274
  8
OBJ
  6
CONTINUOUS
 62
     7
 10
46.978243185646171
 20
2.2283416412591479
 30
0.0
 11
46.812032411480857
 21
2.2283416412591599
 31
0.0
  0
LINE
  5
40275
  8
OBJ
  6
CONTINUOUS
 62
     7
 10
46.978243185646171
 20
2.0941642162966119
 30
0.0
 11
46.812032411480857
 21
2.0941642162966119
 31
0.0
  0
CIRCLE
  5
40276
  8
OBJ
  6
CONTINUOUS
 10
46.956848574011417
 20
2.193543324951194
 30
0.0
 40
0.0135952901026457
  0
LINE
  5
40277
  8
OBJ
  6
CONTINUOUS
 10
46.976425503941833
 20
2.2090742151931599
 30
0.0
 11
46.967188404314108
 21
2.1111609591394171
 31
0.0
  0
ARC
  5
40278
  8
OBJ
  6
CONTINUOUS
 10
46.964390882858979
 20
2.2102095568047551
 30
0.0
 40
0.0120880563029317
 50
354.61068824002513
 51
89.999999999997371
  0
LINE
  5
40279
  8
OBJ
  6
CONTINUOUS
 62
     7
 10
46.841950350830622
 20
2.005619203877635
 30
0.0
 11
46.947720843481271
 21
2.005619203877635
 31
0.0
  0
LINE
  5
4027A
  8
OBJ
  6
CONTINUOUS
 62
     7
 10
46.841950350830622
 20
2.0509494150136338
 30
0.0
 11
46.841950350830622
 21
2.005619203877635
 31
0.0
  0
LINE
  5
4027B
  8
OBJ
  6
CONTINUOUS
 62
     7
 10
46.947720843481271
 20
2.0509494150136338
 30
0.0
 11
46.947720843481271
 21
2.005619203877635
 31
0.0
  0
LINE
  5
4027C
  8
OBJ
  6
CONTINUOUS
 62
     7
 10
46.949987354038072
 20
2.5563812691799681
 30
0.0
 11
46.949987354038072
 21
2.487932650364614
 31
0.0
  0
LINE
  5
4027D
  8
OBJ
  6
CONTINUOUS
 62
     7
 10
46.949987354038072
 20
2.556381269179961
 30
0.0
 11
47.178829369922951
 21
2.6311761175543511
 31
0.0
  0
CIRCLE
  5
4027E
  8
OBJ
  6
CONTINUOUS
 62
     7
 10
47.620118975331827
 20
2.055482436127229
 30
0.0
 40
0.0212447589524025
  0
CIRCLE
  5
4027F
  8
OBJ
  6
CONTINUOUS
 62
     7
 10
47.529458553059847
 20
2.055482436127229
 30
0.0
 40
0.0212447589524025
  0
CIRCLE
  5
40280
  8
OBJ
  6
CONTINUOUS
 62
     7
 10
48.21847776232697
 20
2.055482436127229
 30
0.0
 40
0.0212447589524025
  0
CIRCLE
  5
40281
  8
OBJ
  6
CONTINUOUS
 62
     7
 10
47.873968157693412
 20
2.055482436127229
 30
0.0
 40
0.0212447589524025
  0
CIRCLE
  5
40282
  8
OBJ
  6
CONTINUOUS
 62
     7
 10
47.964628579965392
 20
2.055482436127229
 30
0.0
 40
0.0212447589524025
  0
CIRCLE
  5
40283
  8
OBJ
  6
CONTINUOUS
 62
     7
 10
48.05528900223738
 20
2.055482436127229
 30
0.0
 40
0.0212447589524025
  0
CIRCLE
  5
40284
  8
OBJ
  6
CONTINUOUS
 62
     7
 10
47.710779397603837
 20
2.055482436127229
 30
0.0
 40
0.0212447589524025
  0
CIRCLE
  5
40285
  8
OBJ
  6
CONTINUOUS
 62
     7
 10
48.30913818459895
 20
2.055482436127229
 30
0.0
 40
0.0212447589524025
  0
CIRCLE
  5
40286
  8
OBJ
  6
CONTINUOUS
 62
     7
 10
48.399798606870917
 20
2.055482436127229
 30
0.0
 40
0.0212447589524025
  0
LINE
  5
40287
  8
OBJ
  6
CONTINUOUS
 62
     7
 10
49.102416879478838
 20
1.8552740036099229
 30
0.0
 11
49.102416879478838
 21
2.0592599537219032
 31
0.0
  0
LINE
  5
40288
  8
OBJ
  6
HIDDEN
 62
     7
 10
49.08730680910017
 20
1.8711395775075199
 30
0.0
 11
49.08730680910017
 21
2.0675704924301659
 31
0.0
  0
LINE
  5
40289
  8
OBJ
  6
CONTINUOUS
 62
     7
 10
48.616477016100987
 20
2.6311761175543511
 30
0.0
 11
47.474457896881511
 21
2.6311761175543511
 31
0.0
  0
LINE
  5
4028A
  8
OBJ
  6
CONTINUOUS
 62
     7
 10
47.474457896881511
 20
2.556381269179961
 30
0.0
 11
47.474457896881511
 21
2.6311761175543511
 31
0.0
  0
LINE
  5
4028B
  8
OBJ
  6
CONTINUOUS
 62
     7
 10
47.407671385807816
 20
2.556381269179961
 30
0.0
 11
47.407671385807816
 21
2.6311761175543511
 31
0.0
  0
ARC
  5
4028C
  8
OBJ
  6
CONTINUOUS
 62
     7
 10
47.441064641344667
 20
2.5563812691799561
 30
0.0
 40
0.0333932555368488
 50
180.0
 51
0.0
  0
LINE
  5
4028D
  8
OBJ
  6
CONTINUOUS
 62
     7
 10
48.683263527174681
 20
2.556381269179961
 30
0.0
 11
48.683263527174681
 21
2.6311761175543622
 31
0.0
  0
LINE
  5
4028E
  8
OBJ
  6
CONTINUOUS
 62
     7
 10
48.616477016100987
 20
2.556381269179961
 30
0.0
 11
48.616477016100987
 21
2.6311761175543511
 31
0.0
  0
ARC
  5
4028F
  8
OBJ
  6
CONTINUOUS
 62
     7
 10
48.649870271637838
 20
2.5563812691799561
 30
0.0
 40
0.0333932555368488
 50
180.0
 51
0.0
  0
LINE
  5
40290
  8
OBJ
  6
CONTINUOUS
 62
     7
 10
48.91210554305956
 20
2.6311761175543622
 30
0.0
 11
48.683263527174681
 21
2.6311761175543622
 31
0.0
  0
LINE
  5
40291
  8
OBJ
  6
CONTINUOUS
 10
48.045944405549378
 20
4.4671304417924169
 30
0.0
 11
48.03364518053133
 21
4.4339747078658132
 31
0.0
  0
LINE
  5
40292
  8
OBJ
  6
CONTINUOUS
 10
48.080413049281823
 20
4.4671304417924169
 30
0.0
 11
48.068113824263783
 21
4.4339747078658132
 31
0.0
  0
LINE
  5
40293
  8
OBJ
  6
CONTINUOUS
 10
48.011475761816939
 20
4.4671304417924169
 30
0.0
 11
47.99917653679892
 21
4.4339747078658132
 31
0.0
  0
LINE
  5
40294
  8
0
 10
47.708873354569207
 20
5.1856077848432047
 30
0.0
 11
47.708873354569207
 21
3.3502310922059721
 31
0.0
  0
LINE
  5
40296
  8
0
 10
47.885139233564438
 20
5.190938039542158
 30
0.0
 11
47.885139233564438
 21
3.4824969809055082
 31
0.0
  0
LINE
  5
40298
  8
0
 10
48.165815550245917
 20
4.584072313365783
 30
0.0
 11
48.165815550245917
 21
3.2179652035064361
 31
0.0
  0
LINE
  5
40299
  8
0
 10
48.355598034201961
 20
4.584072313365783
 30
0.0
 11
48.355598034201961
 21
3.217965203506437
 31
0.0
  0
LINE
  5
4029A
  8
0
 10
48.54538051815797
 20
4.584072313365783
 30
0.0
 11
48.54538051815797
 21
3.3502310922059721
 31
0.0
  0
LINE
  5
4029B
  8
0
 10
48.735163002114007
 20
4.584072313365783
 30
0.0
 11
48.735163002114007
 21
3.3502310922059721
 31
0.0
  0
LINE
  5
4029C
  8
0
 10
49.114425768618489
 20
4.584072313365783
 30
0.0
 11
49.114425768618489
 21
3.480754004202514
 31
0.0
  0
LINE
  5
4029D
  8
0
 10
48.924945486070023
 20
4.584072313365783
 30
0.0
 11
48.92494548607003
 21
3.4824969809055082
 31
0.0
  0
TEXT
  5
4029E
  8
OBJ
  6
CONTINUOUS
 10
46.791944154554081
 20
3.6529780195824468
 30
0.0
 40
0.0661329443497673
  1
LOAD
  0
TEXT
  5
4029F
  8
0
 10
46.91022069016207
 20
3.512029183064199
 30
0.0
 40
0.06
  1
C
  0
TEXT
  5
402AA
  8
0
 10
46.91022069016207
 20
3.3797632943646629
 30
0.0
 40
0.06
  1
B
  0
TEXT
  5
402AB
  8
0
 10
46.91022069016207
 20
3.2474974056651278
 30
0.0
 40
0.06
  1
A
  0
TEXT
  5
402AD
  8
OBJ
  6
CONTINUOUS
 10
47.949258609356143
 20
2.965629347388377
 30
0.0
 40
0.0444391
  1
GROUND
  7
SIMPLEX
  0
ARC
  5
402AE
  8
0
 10
48.213261171234947
 20
3.2179652035064361
 30
0.0
 40
0.0474456209890022
 50
180.0
 51
0.0
  0
TEXT
  5
402AF
  8
OBJ
  6
CONTINUOUS
 10
47.786865716133157
 20
3.0514141536696551
 30
0.0
 40
0.0444391
  1
SWITCHGEAR CHASSIS
  7
SIMPLEX
  0
ARC
  5
402B1
  8
0
 10
48.972088905651482
 20
3.480754004202514
 30
0.0
 40
0.0474456209890022
 50
180.0
 51
0.0
  0
ARC
  5
402B2
  8
0
 10
49.066980147629479
 20
3.480754004202514
 30
0.0
 40
0.0474456209890022
 50
180.0
 51
0.0
  0
ARC
  5
402B3
  8
0
 10
48.592826139147
 20
3.3502310922059721
 30
0.0
 40
0.0474456209890022
 50
180.0
 51
0.0
  0
ARC
  5
402B4
  8
0
 10
48.687717381124997
 20
3.3502310922059721
 30
0.0
 40
0.0474456209890022
 50
180.0
 51
0.0
  0
ARC
  5
402B5
  8
0
 10
48.308152413212959
 20
3.2179652035064361
 30
0.0
 40
0.0474456209890022
 50
180.0
 51
0.0
  0
SOLID
  5
402CA
  8
OBJ
  6
BYBLOCK
 62
     0
 10
48.02466332614334
 20
4.3299882593961936
 30
0.0
 11
48.002759914621528
 21
4.3299882593961936
 31
0.0
 12
48.013711620382431
 22
4.3956984939616524
 32
0.0
 13
48.013711620382431
 23
4.3956984939616524
 33
0.0
  0
LINE
  5
402CD
  8
0
 10
48.165815550245917
 20
6.0847774557596761
 30
0.0
 11
48.165815550245917
 21
4.6646261499979822
 31
0.0
  0
LINE
  5
402CE
  8
0
 10
48.54538051815797
 20
6.0847774557596761
 30
0.0
 11
48.54538051815797
 21
4.6646261499979822
 31
0.0
  0
LINE
  5
402CF
  8
0
 10
48.92494548607003
 20
6.0847774557596761
 30
0.0
 11
48.92494548607003
 21
4.6646261499979822
 31
0.0
  0
LINE
  5
402D0
  8
0
 10
47.525122281723156
 20
6.2360402309971956
 30
0.0
 11
47.525122281723156
 21
5.3764469801727293
 31
0.0
  0
LINE
  5
402D1
  8
0
 10
47.708873354569207
 20
6.2360402309971956
 30
0.0
 11
47.708873354569207
 21
5.3764469801727293
 31
0.0
  0
LINE
  5
402D4
  8
0
 10
47.885139233564438
 20
6.2360402309971956
 30
0.0
 11
47.885139233564438
 21
5.3764469801727293
 31
0.0
  0
LINE
  5
402D6
  8
OBJ
  6
CONTINUOUS
 10
47.885139233564438
 20
5.7976866352849621
 30
0.0
 11
47.885139233564438
 21
5.3787121532732192
 31
0.0
  0
LINE
  5
402D8
  8
0
 10
46.787040507167461
 20
6.2360402309971956
 30
0.0
 11
46.787040507167461
 21
5.153675507817673
 31
0.0
  0
LINE
  5
402D9
  8
0
 10
46.606468233252777
 20
6.2360402309971956
 30
0.0
 11
46.606468233252777
 21
5.153675507817673
 31
0.0
  0
LINE
  5
402DA
  8
0
 10
46.956132922668779
 20
6.2360402309971956
 30
0.0
 11
46.956132922668779
 21
5.153675507817673
 31
0.0
  0
TEXT
  5
402DB
  8
OBJ
  6
CONTINUOUS
 10
48.044268821570157
 20
5.5836044304779522
 30
0.0
 40
0.0438068230436382
  1
FUSES
  0
TEXT
  5
402DD
  8
OBJ
  6
CONTINUOUS
 10
46.403468067879842
 20
4.8889153276699311
 30
0.0
 40
0.0462023
  1
(DEPENDENT ON EQUIPPED 
  7
SIMPLEX
  0
TEXT
  5
402DE
  8
OBJ
  6
CONTINUOUS
 10
46.415057518474278
 20
4.801431795291264
 30
0.0
 40
0.04
  1
POWER SUPPLY OPTION)
  7
SIMPLEX
  0
TEXT
  5
402E0
  8
OBJ
  6
CONTINUOUS
 10
46.411871930333547
 20
4.977251076896847
 30
0.0
 40
0.0462023
  1
SUPPLY POWER
  7
SIMPLEX
  0
POINT
  5
402E1
  8
OBJ
  6
BYBLOCK
 62
     0
 10
46.444296948870502
 20
4.9207816773397841
 30
0.0
  0
LINE
  5
402E2
  8
OBJ
  6
CONTINUOUS
 10
46.996313553639261
 20
5.153675507817673
 30
0.0
 11
46.981976156858913
 21
5.1150253561087249
 31
0.0
  0
LINE
  5
402E3
  8
OBJ
  6
CONTINUOUS
 10
46.996313553639261
 20
5.153675507817673
 30
0.0
 11
46.915952291698297
 21
5.153675507817673
 31
0.0
  0
LINE
  5
402E4
  8
OBJ
  6
CONTINUOUS
 10
46.956132922668779
 20
5.153675507817673
 30
0.0
 11
46.941795525888423
 21
5.1150253561087249
 31
0.0
  0
LINE
  5
402E5
  8
OBJ
  6
CONTINUOUS
 10
46.915952291698297
 20
5.153675507817673
 30
0.0
 11
46.901614894917948
 21
5.1150253561087249
 31
0.0
  0
POINT
  5
402E6
  8
OBJ
  6
BYBLOCK
 62
     0
 10
46.60646823325277
 20
5.153675507817673
 30
0.0
  0
SOLID
  5
402E7
  8
OBJ
  6
BYBLOCK
 62
     0
 10
46.707706075971018
 20
5.1309796791123574
 30
0.0
 11
46.685802664449213
 21
5.1309796791123574
 31
0.0
 12
46.696754370210122
 22
5.0652694445468986
 32
0.0
 13
46.696754370210122
 23
5.0652694445468986
 33
0.0
  0
TEXT
  5
402E8
  8
OBJ
  6
CONTINUOUS
 10
47.953232996931092
 20
4.8447118633755837
 30
0.0
 40
0.06087276
  1
CT'S
  7
SIMPLEX
  0
LINE
  5
402E9
  8
0
 10
47.525122281723156
 20
5.190938039542158
 30
0.0
 11
47.525122281723156
 21
3.2179652035064361
 31
0.0
  0
CIRCLE
  5
402EA
  8
OBJ
  6
CONTINUOUS
 10
48.165815550245917
 20
4.6243492316818831
 30
0.0
 40
0.0402769183160991
  0
LINE
  5
402EB
  8
OBJ
  6
CONTINUOUS
 10
48.137335468179323
 20
4.6528293137484873
 30
0.0
 11
48.194295632312539
 21
4.5958691496152637
 31
0.0
  0
LINE
  5
402EC
  8
OBJ
  6
CONTINUOUS
 10
48.07649554396356
 20
4.5383783887053823
 30
0.0
 11
48.076495543963553
 21
4.7472519441699772
 31
0.0
  0
LINE
  5
402ED
  8
OBJ
  6
CONTINUOUS
 10
48.080413049281823
 20
4.4671304417924169
 30
0.0
 11
48.011475761816939
 21
4.4671304417924169
 31
0.0
  0
LINE
  5
402EE
  8
0
 10
48.13828712404554
 20
4.5972238844358344
 30
0.0
 11
48.047733462602451
 21
4.4663701580752351
 31
0.0
  0
CIRCLE
  5
402EF
  8
OBJ
  6
CONTINUOUS
 10
48.924945486070037
 20
4.6243492316818831
 30
0.0
 40
0.0402769183160991
  0
CIRCLE
  5
402F0
  8
OBJ
  6
CONTINUOUS
 10
48.54538051815797
 20
4.6243492316818831
 30
0.0
 40
0.0402769183160991
  0
LINE
  5
402F1
  8
OBJ
  6
CONTINUOUS
 10
48.516900436091369
 20
4.6528293137484873
 30
0.0
 11
48.573860600224577
 21
4.5958691496152637
 31
0.0
  0
CIRCLE
  5
402F2
  8
OBJ
  6
CONTINUOUS
 10
48.735163002114007
 20
4.6243492316818831
 30
0.0
 40
0.0402769183160991
  0
LINE
  5
402F3
  8
OBJ
  6
CONTINUOUS
 10
48.706682920047399
 20
4.6528293137484873
 30
0.0
 11
48.763643084180622
 21
4.5958691496152637
 31
0.0
  0
LINE
  5
402F4
  8
OBJ
  6
CONTINUOUS
 10
48.896465404003429
 20
4.6528293137484873
 30
0.0
 11
48.953425568136652
 21
4.5958691496152637
 31
0.0
  0
CIRCLE
  5
402F5
  8
OBJ
  6
CONTINUOUS
 10
48.355598034201961
 20
4.6243492316818831
 30
0.0
 40
0.0402769183160991
  0
LINE
  5
402F6
  8
OBJ
  6
CONTINUOUS
 10
48.32711795213536
 20
4.6528293137484873
 30
0.0
 11
48.384078116268583
 21
4.5958691496152637
 31
0.0
  0
LINE
  5
402F9
  8
OBJ
  6
CONTINUOUS
 10
47.885139233564438
 20
5.2059380395421586
 30
0.0
 11
47.885139233564438
 21
5.1562790690477502
 31
0.0
  0
TEXT
  5
402FA
  8
OBJ
  6
CONTINUOUS
 10
48.045329875932453
 20
5.2242431324618837
 30
0.0
 40
0.0438068230436382
  1
2A
  0
CIRCLE
  5
402FC
  8
OBJ
  6
CONTINUOUS
 10
47.347886233058787
 20
6.2763171493132948
 30
0.0
 40
0.0402769183160991
  0
LINE
  5
402FD
  8
OBJ
  6
CONTINUOUS
 10
47.312781372660289
 20
6.2584056347302051
 30
0.0
 11
47.384931432795582
 21
6.2942286638963942
 31
0.0
  0
LINE
  5
402FE
  8
OBJ
  6
CONTINUOUS
 62
     7
 10
47.407671385807816
 20
5.6901664485350061
 30
0.0
 11
47.178829369922951
 21
5.6901664485350061
 31
0.0
  0
LINE
  5
402FF
  8
OBJ
  6
CONTINUOUS
 62
     7
 10
47.972942908155467
 20
6.1373045018295782
 30
0.0
 11
46.51866455866174
 21
6.1373045018295791
 31
0.0
  0
LINE
  5
40300
  8
OBJ
  6
CONTINUOUS
 62
     7
 10
46.949987354038072
 20
5.7649612969094024
 30
0.0
 11
47.178829369922951
 21
5.6901664485350061
 31
0.0
  0
LINE
  5
40301
  8
OBJ
  6
CONTINUOUS
 62
     7
 10
46.949987354038072
 20
5.8334099157247588
 30
0.0
 11
46.949987354038072
 21
5.7649612969094024
 31
0.0
  0
ARC
  5
40302
  8
OBJ
  6
CONTINUOUS
 62
     7
 10
46.572235594571453
 20
6.1072043909861513
 30
0.0
 40
0.0755503518933231
 50
180.0
 51
270.0
  0
CIRCLE
  5
40303
  8
OBJ
  6
CONTINUOUS
 10
46.956132922668779
 20
6.2763171493132948
 30
0.0
 40
0.0402769183160991
  0
CIRCLE
  5
40304
  8
OBJ
  6
CONTINUOUS
 10
47.160877670747169
 20
6.2763171493132948
 30
0.0
 40
0.0402769183160991
  0
LINE
  5
40305
  8
OBJ
  6
CONTINUOUS
 10
47.124802640679519
 20
6.2584056347302051
 30
0.0
 11
47.196952700814812
 21
6.2942286638963942
 31
0.0
  0
LINE
  5
40306
  8
OBJ
  6
CONTINUOUS
 10
46.920057892601143
 20
6.2584056347302051
 30
0.0
 11
46.992207952736422
 21
6.2942286638963942
 31
0.0
  0
CIRCLE
  5
40307
  8
OBJ
  6
CONTINUOUS
 10
46.606468233252777
 20
6.2763171493132948
 30
0.0
 40
0.0402769183160991
  0
LINE
  5
40308
  8
OBJ
  6
CONTINUOUS
 10
46.571363372854272
 20
6.2584056347302051
 30
0.0
 11
46.643513432989558
 21
6.2942286638963942
 31
0.0
  0
CIRCLE
  5
40309
  8
OBJ
  6
CONTINUOUS
 10
46.787040507167461
 20
6.2763171493132948
 30
0.0
 40
0.0402769183160991
  0
LINE
  5
4030A
  8
OBJ
  6
CONTINUOUS
 10
46.74762925184951
 20
6.2584056347302051
 30
0.0
 11
46.819779311984789
 21
6.2942286638963942
 31
0.0
  0
LINE
  5
4030B
  8
OBJ
  6
CONTINUOUS
 62
     7
 10
48.616477016100987
 20
5.6901664485350061
 30
0.0
 11
47.474457896881511
 21
5.6901664485350061
 31
0.0
  0
LINE
  5
4030C
  8
OBJ
  6
CONTINUOUS
 10
47.708873354569207
 20
5.7976866352849621
 30
0.0
 11
47.708873354569207
 21
5.5597536121042106
 31
0.0
  0
ARC
  5
4030D
  8
OBJ
  6
CONTINUOUS
 62
     7
 10
47.441064641344667
 20
5.7649612969093971
 30
0.0
 40
0.0333932555368488
 50
0.0
 51
180.0
  0
LINE
  5
4030E
  8
OBJ
  6
CONTINUOUS
 62
     7
 10
47.407671385807816
 20
5.7649612969094024
 30
0.0
 11
47.407671385807816
 21
5.6901664485350061
 31
0.0
  0
LINE
  5
4030F
  8
OBJ
  6
CONTINUOUS
 62
     7
 10
47.474457896881511
 20
5.7649612969094024
 30
0.0
 11
47.474457896881511
 21
5.6901664485350061
 31
0.0
  0
LINE
  5
40310
  8
OBJ
  6
CONTINUOUS
 10
47.525122281723156
 20
5.7976866352849621
 30
0.0
 11
47.525122281723156
 21
5.5597536121042106
 31
0.0
  0
LINE
  5
40311
  8
OBJ
  6
CONTINUOUS
 62
     7
 10
48.912105543059553
 20
5.6901664485350114
 30
0.0
 11
48.683263527174681
 21
5.6901664485350114
 31
0.0
  0
ARC
  5
40312
  8
OBJ
  6
CONTINUOUS
 62
     7
 10
48.649870271637838
 20
5.7649612969093971
 30
0.0
 40
0.0333932555368488
 50
0.0
 51
180.0
  0
LINE
  5
40313
  8
OBJ
  6
CONTINUOUS
 62
     7
 10
48.616477016100987
 20
5.7649612969094024
 30
0.0
 11
48.616477016100987
 21
5.6901664485350061
 31
0.0
  0
LINE
  5
40314
  8
OBJ
  6
CONTINUOUS
 62
     7
 10
48.683263527174681
 20
5.7649612969094024
 30
0.0
 11
48.683263527174681
 21
5.6901664485350114
 31
0.0
  0
CIRCLE
  5
40315
  8
OBJ
  6
CONTINUOUS
 62
     7
 10
48.165815550245917
 20
6.1626849786320701
 30
0.0
 40
0.0779075228723947
  0
LINE
  5
40316
  8
OBJ
  6
CONTINUOUS
 10
48.203358931055682
 20
6.1843606596488714
 30
0.0
 11
48.165815550245902
 21
6.2060363406656718
 31
0.0
  0
LINE
  5
40317
  8
OBJ
  6
CONTINUOUS
 10
48.12012294997426
 20
6.2596099960468168
 30
0.0
 11
48.213813905751081
 21
6.2596099960468168
 31
0.0
  0
LINE
  5
40318
  8
OBJ
  6
CONTINUOUS
 10
48.165815550245902
 20
6.1193336165984791
 30
0.0
 11
48.203358931055682
 21
6.141009297615275
 31
0.0
  0
CIRCLE
  5
40319
  8
OBJ
  6
CONTINUOUS
 10
48.165815550245917
 20
6.1626849786320701
 30
0.0
 40
0.028168665929907
  0
CIRCLE
  5
4031A
  8
OBJ
  6
CONTINUOUS
 10
47.708873354569207
 20
6.2763171493132948
 30
0.0
 40
0.0402769183160991
  0
CIRCLE
  5
4031B
  8
OBJ
  6
CONTINUOUS
 10
47.885139233564438
 20
6.2763171493132948
 30
0.0
 40
0.0402769183160991
  0
LINE
  5
4031C
  8
OBJ
  6
CONTINUOUS
 10
48.165815550245902
 20
6.2060363406656718
 30
0.0
 11
48.128272169436173
 21
6.1843606596488714
 31
0.0
  0
ARC
  5
4031D
  8
OBJ
  6
CONTINUOUS
 10
48.12012294997426
 20
6.2716980523497554
 30
0.0
 40
0.0120880563029317
 50
180.0
 51
269.99999999999972
  0
LINE
  5
4031E
  8
OBJ
  6
CONTINUOUS
 10
48.128272169436173
 20
6.141009297615275
 30
0.0
 11
48.165815550245902
 21
6.1193336165984791
 31
0.0
  0
LINE
  5
4031F
  8
OBJ
  6
CONTINUOUS
 10
48.128272169436173
 20
6.1843606596488714
 30
0.0
 11
48.128272169436173
 21
6.141009297615275
 31
0.0
  0
LINE
  5
40320
  8
OBJ
  6
CONTINUOUS
 10
47.849064203496802
 20
6.2584056347302051
 30
0.0
 11
47.921214263632081
 21
6.2942286638963942
 31
0.0
  0
ARC
  5
40321
  8
OBJ
  6
CONTINUOUS
 10
48.213813905751081
 20
6.2716980523497483
 30
0.0
 40
0.0120880563029317
 50
270.0
 51
0.0
  0
LINE
  5
40322
  8
OBJ
  6
CONTINUOUS
 10
48.203358931055682
 20
6.141009297615275
 30
0.0
 11
48.203358931055682
 21
6.1843606596488714
 31
0.0
  0
LINE
  5
40323
  8
OBJ
  6
CONTINUOUS
 10
47.672798324501557
 20
6.2584056347302051
 30
0.0
 11
47.744948384636842
 21
6.2942286638963942
 31
0.0
  0
CIRCLE
  5
40324
  8
OBJ
  6
CONTINUOUS
 10
47.525122281723156
 20
6.2763171493132948
 30
0.0
 40
0.0402769183160991
  0
LINE
  5
40325
  8
OBJ
  6
CONTINUOUS
 10
47.489047251655521
 20
6.2584056347302051
 30
0.0
 11
47.561197311790806
 21
6.2942286638963942
 31
0.0
  0
CIRCLE
  5
40326
  8
OBJ
  6
CONTINUOUS
 62
     7
 10
48.92494548607003
 20
6.1626849786320701
 30
0.0
 40
0.0779075228723947
  0
LINE
  5
40327
  8
OBJ
  6
CONTINUOUS
 10
48.92494548607003
 20
6.2060363406656718
 30
0.0
 11
48.887402105260279
 21
6.1843606596488714
 31
0.0
  0
LINE
  5
40328
  8
OBJ
  6
CONTINUOUS
 10
48.879252885798358
 20
6.2596099960468168
 30
0.0
 11
48.97294384157518
 21
6.2596099960468168
 31
0.0
  0
LINE
  5
40329
  8
OBJ
  6
CONTINUOUS
 10
48.887402105260279
 20
6.141009297615275
 30
0.0
 11
48.92494548607003
 21
6.1193336165984791
 31
0.0
  0
LINE
  5
4032A
  8
OBJ
  6
CONTINUOUS
 10
48.545380518157977
 20
6.2060363406656718
 30
0.0
 11
48.507837137348233
 21
6.1843606596488714
 31
0.0
  0
LINE
  5
4032B
  8
OBJ
  6
CONTINUOUS
 10
48.507837137348233
 20
6.141009297615275
 30
0.0
 11
48.545380518157977
 21
6.1193336165984791
 31
0.0
  0
CIRCLE
  5
4032C
  8
OBJ
  6
CONTINUOUS
 10
48.54538051815797
 20
6.1626849786320701
 30
0.0
 40
0.028168665929907
  0
LINE
  5
4032D
  8
OBJ
  6
CONTINUOUS
 10
48.507837137348233
 20
6.1843606596488714
 30
0.0
 11
48.507837137348233
 21
6.141009297615275
 31
0.0
  0
LINE
  5
4032E
  8
OBJ
  6
CONTINUOUS
 10
48.582923898967742
 20
6.1843606596488714
 30
0.0
 11
48.545380518157977
 21
6.2060363406656718
 31
0.0
  0
ARC
  5
4032F
  8
OBJ
  6
CONTINUOUS
 10
48.59337887366312
 20
6.2716980523497483
 30
0.0
 40
0.0120880563029317
 50
270.0
 51
0.0
  0
LINE
  5
40330
  8
OBJ
  6
CONTINUOUS
 10
48.545380518157977
 20
6.1193336165984791
 30
0.0
 11
48.582923898967742
 21
6.141009297615275
 31
0.0
  0
LINE
  5
40331
  8
OBJ
  6
CONTINUOUS
 10
48.582923898967742
 20
6.141009297615275
 30
0.0
 11
48.582923898967742
 21
6.1843606596488714
 31
0.0
  0
ARC
  5
40332
  8
OBJ
  6
CONTINUOUS
 10
48.879252885798358
 20
6.2716980523497554
 30
0.0
 40
0.0120880563029317
 50
180.0
 51
269.99999999999972
  0
LINE
  5
40333
  8
OBJ
  6
CONTINUOUS
 10
48.887402105260279
 20
6.1843606596488714
 30
0.0
 11
48.887402105260279
 21
6.141009297615275
 31
0.0
  0
ARC
  5
40334
  8
OBJ
  6
CONTINUOUS
 10
48.97294384157518
 20
6.2716980523497483
 30
0.0
 40
0.0120880563029317
 50
270.0
 51
0.0
  0
LINE
  5
40335
  8
OBJ
  6
CONTINUOUS
 10
48.962488866879781
 20
6.1843606596488714
 30
0.0
 11
48.92494548607003
 21
6.2060363406656718
 31
0.0
  0
LINE
  5
40336
  8
OBJ
  6
CONTINUOUS
 10
48.92494548607003
 20
6.1193336165984791
 30
0.0
 11
48.962488866879781
 21
6.141009297615275
 31
0.0
  0
LINE
  5
40337
  8
OBJ
  6
CONTINUOUS
 10
48.962488866879781
 20
6.141009297615275
 30
0.0
 11
48.962488866879781
 21
6.1843606596488714
 31
0.0
  0
CIRCLE
  5
40338
  8
OBJ
  6
CONTINUOUS
 10
48.92494548607003
 20
6.1626849786320701
 30
0.0
 40
0.028168665929907
  0
ARC
  5
40339
  8
OBJ
  6
CONTINUOUS
 10
48.499687917886298
 20
6.2716980523497554
 30
0.0
 40
0.0120880563029317
 50
180.0
 51
269.99999999999972
  0
CIRCLE
  5
4033A
  8
OBJ
  6
CONTINUOUS
 62
     7
 10
48.54538051815797
 20
6.1626849786320701
 30
0.0
 40
0.0779075228723947
  0
LINE
  5
4033B
  8
OBJ
  6
CONTINUOUS
 10
48.499687917886298
 20
6.2596099960468168
 30
0.0
 11
48.59337887366312
 21
6.2596099960468168
 31
0.0
  0
LINE
  5
4033C
  8
OBJ
  6
CONTINUOUS
 62
     7
 10
46.947720843481271
 20
7.2948559227491927
 30
0.0
 11
46.947720843481271
 21
7.2495257116131953
 31
0.0
  0
LINE
  5
4033D
  8
OBJ
  6
CONTINUOUS
 62
     7
 10
46.841950350830622
 20
7.2948559227491927
 30
0.0
 11
46.841950350830622
 21
7.2495257116131953
 31
0.0
  0
LINE
  5
4033E
  8
OBJ
  6
HIDDEN
 62
     7
 10
49.08730680910017
 20
7.1150460852430788
 30
0.0
 11
49.08730680910017
 21
7.3114770001657261
 31
0.0
  0
LINE
  5
4033F
  8
OBJ
  6
CONTINUOUS
 62
     7
 10
49.102416879478838
 20
7.099180511345482
 30
0.0
 11
49.102416879478838
 21
7.3031664614574616
 31
0.0
  0
TEXT
  5
40340
  8
OBJ
  6
CONTINUOUS
 10
46.777024923220651
 20
6.6655448788701781
 30
0.0
 40
0.0755503518933231
  1
NEXUS 1250
  7
SIMPLEX
  0
TEXT
  5
40341
  8
OBJ
  6
CONTINUOUS
 10
47.285175192626077
 20
6.4463700009549409
 30
0.0
 40
0.04
  1
Vref.
  7
SIMPLEX
  0
LINE
  5
40342
  8
OBJ
  6
CONTINUOUS
 10
47.420484199824926
 20
6.5086637206463784
 30
0.0
 11
47.272362906511972
 21
6.5086637206463784
 31
0.0
  0
LINE
  5
40343
  8
OBJ
  6
CONTINUOUS
 10
47.272362906511972
 20
6.4272782765362768
 30
0.0
 11
47.420484199824912
 21
6.4272782765362768
 31
0.0
  0
LINE
  5
40344
  8
OBJ
  6
CONTINUOUS
 62
     7
 10
47.972942908155467
 20
6.4153297967970042
 30
0.0
 11
46.51866455866174
 21
6.4153297967970042
 31
0.0
  0
LINE
  5
40345
  8
OBJ
  6
CONTINUOUS
 10
47.231550037072608
 20
6.5086637206463784
 30
0.0
 11
47.087535765192058
 21
6.5086637206463784
 31
0.0
  0
LINE
  5
40346
  8
OBJ
  6
CONTINUOUS
 10
47.087535765192058
 20
6.4272782765362768
 30
0.0
 11
47.231550037072601
 21
6.4272782765362768
 31
0.0
  0
TEXT
  5
40347
  8
OBJ
  6
CONTINUOUS
 10
47.087673626237191
 20
6.449381309144111
 30
0.0
 40
0.04
  1
Vaux.
  7
SIMPLEX
  0
LINE
  5
40348
  8
OBJ
  6
CONTINUOUS
 10
46.888381899883541
 20
6.4272782765362768
 30
0.0
 11
47.053347170251158
 21
6.4272782765362768
 31
0.0
  0
LINE
  5
40349
  8
OBJ
  6
CONTINUOUS
 10
47.049650841911891
 20
6.5086637206463784
 30
0.0
 11
46.886739082260469
 21
6.5086637206463784
 31
0.0
  0
TEXT
  5
4034A
  8
OBJ
  6
CONTINUOUS
 10
46.88831371432719
 20
6.4463700009549409
 30
0.0
 40
0.04
  1
CHASIS
 41
0.8
  7
SIMPLEX
  0
ARC
  5
4034B
  8
OBJ
  6
CONTINUOUS
 10
46.854874566676713
 20
6.495392366226433
 30
0.0
 40
0.0132763984077328
 50
352.039227202257
 51
88.420577735335499
  0
ARC
  5
4034C
  8
OBJ
  6
CONTINUOUS
 10
46.854874566676699
 20
6.440549630956232
 30
0.0
 40
0.0132763984077345
 50
271.57942226466452
 51
7.9607727977391702
  0
LINE
  5
4034D
  8
OBJ
  6
CONTINUOUS
 10
46.868023022034812
 20
6.4423883469149468
 30
0.0
 11
46.868023022034812
 21
6.4935536502677182
 31
0.0
  0
ARC
  5
4034E
  8
OBJ
  6
CONTINUOUS
 10
46.889688756860338
 20
6.4935536502677182
 30
0.0
 40
0.0151100703786646
 50
90.0
 51
180.0
  0
LINE
  5
4034F
  8
OBJ
  6
CONTINUOUS
 10
46.874578686481691
 20
6.4935536502677182
 30
0.0
 11
46.874578686481691
 21
6.4423883469149468
 31
0.0
  0
ARC
  5
40350
  8
OBJ
  6
CONTINUOUS
 10
46.889688756860338
 20
6.4423883469149468
 30
0.0
 40
0.0151100703786646
 50
179.9999999999971
 51
270.0
  0
ARC
  5
40351
  8
OBJ
  6
CONTINUOUS
 10
47.050405151201723
 20
6.4935536502677182
 30
0.0
 40
0.0151100703786646
 50
0.0
 51
90.0
  0
LINE
  5
40352
  8
OBJ
  6
CONTINUOUS
 10
47.065515221580377
 20
6.4423883469149468
 30
0.0
 11
47.065515221580377
 21
6.4935536502677182
 31
0.0
  0
ARC
  5
40353
  8
OBJ
  6
CONTINUOUS
 10
47.050405151201701
 20
6.4423883469149468
 30
0.0
 40
0.0151100703786646
 50
270.0
 51
359.9999999999971
  0
LINE
  5
40354
  8
OBJ
  6
CONTINUOUS
 10
47.072425694813418
 20
6.4935536502677182
 30
0.0
 11
47.072425694813418
 21
6.4423883469149468
 31
0.0
  0
ARC
  5
40355
  8
OBJ
  6
CONTINUOUS
 10
47.087535765192058
 20
6.4935536502677182
 30
0.0
 40
0.0151100703786646
 50
90.0
 51
180.0
  0
ARC
  5
40356
  8
OBJ
  6
CONTINUOUS
 10
47.087535765192058
 20
6.4423883469149468
 30
0.0
 40
0.0151100703786646
 50
179.9999999999971
 51
270.0
  0
LINE
  5
40357
  8
OBJ
  6
CONTINUOUS
 10
47.257252836133333
 20
6.4935536502677182
 30
0.0
 11
47.257252836133333
 21
6.4423883469149468
 31
0.0
  0
ARC
  5
40358
  8
OBJ
  6
CONTINUOUS
 10
47.272362906511972
 20
6.4935536502677182
 30
0.0
 40
0.0151100703786646
 50
90.0
 51
180.0
  0
ARC
  5
40359
  8
OBJ
  6
CONTINUOUS
 10
47.272362906511972
 20
6.4423883469149468
 30
0.0
 40
0.0151100703786646
 50
179.9999999999971
 51
270.0
  0
ARC
  5
4035A
  8
OBJ
  6
CONTINUOUS
 10
47.231550037072608
 20
6.4935536502677182
 30
0.0
 40
0.0151100703786646
 50
0.0
 51
90.0
  0
LINE
  5
4035B
  8
OBJ
  6
CONTINUOUS
 10
47.24666010745127
 20
6.4423883469149468
 30
0.0
 11
47.24666010745127
 21
6.4935536502677182
 31
0.0
  0
ARC
  5
4035C
  8
OBJ
  6
CONTINUOUS
 10
47.231550037072601
 20
6.4423883469149468
 30
0.0
 40
0.0151100703786646
 50
270.0
 51
359.9999999999971
  0
TEXT
  5
4035D
  8
OBJ
  6
CONTINUOUS
 10
46.557263352317747
 20
6.4388883981425948
 30
0.0
 40
0.06
  1
L+
  7
SIMPLEX
  0
LINE
  5
4035E
  8
OBJ
  6
CONTINUOUS
 10
46.675009219838039
 20
6.5086637206463784
 30
0.0
 11
46.535137852997543
 21
6.5086637206463784
 31
0.0
  0
LINE
  5
4035F
  8
OBJ
  6
CONTINUOUS
 10
46.535137852997543
 20
6.4272782765362768
 30
0.0
 11
46.675009219838017
 21
6.4272782765362768
 31
0.0
  0
ARC
  5
40360
  8
OBJ
  6
CONTINUOUS
 10
46.535137852997543
 20
6.4935536502677182
 30
0.0
 40
0.0151100703786646
 50
90.0
 51
180.0
  0
LINE
  5
40361
  8
OBJ
  6
CONTINUOUS
 10
46.520027782618897
 20
6.4935536502677182
 30
0.0
 11
46.520027782618897
 21
6.4423883469149468
 31
0.0
  0
ARC
  5
40362
  8
OBJ
  6
CONTINUOUS
 10
46.535137852997543
 20
6.4423883469149468
 30
0.0
 40
0.0151100703786646
 50
179.9999999999971
 51
270.0
  0
ARC
  5
40363
  8
OBJ
  6
CONTINUOUS
 10
46.715369132263042
 20
6.4423883469149468
 30
0.0
 40
0.0151100703786646
 50
179.9999999999971
 51
270.0
  0
LINE
  5
40364
  8
OBJ
  6
CONTINUOUS
 10
46.700259061884388
 20
6.4935536502677182
 30
0.0
 11
46.700259061884388
 21
6.4423883469149468
 31
0.0
  0
ARC
  5
40365
  8
OBJ
  6
CONTINUOUS
 10
46.715369132263042
 20
6.4935536502677182
 30
0.0
 40
0.0151100703786646
 50
90.0
 51
180.0
  0
LINE
  5
40366
  8
OBJ
  6
CONTINUOUS
 10
46.6901192902167
 20
6.4423883469149468
 30
0.0
 11
46.6901192902167
 21
6.4935536502677182
 31
0.0
  0
ARC
  5
40367
  8
OBJ
  6
CONTINUOUS
 10
46.675009219838039
 20
6.4935536502677182
 30
0.0
 40
0.0151100703786646
 50
0.0
 51
90.0
  0
ARC
  5
40368
  8
OBJ
  6
CONTINUOUS
 10
46.675009219838017
 20
6.4423883469149468
 30
0.0
 40
0.0151100703786646
 50
270.0
 51
359.9999999999971
  0
LINE
  5
40369
  8
OBJ
  6
CONTINUOUS
 10
46.715369132263042
 20
6.4272782765362768
 30
0.0
 11
46.855240499103523
 21
6.4272782765362768
 31
0.0
  0
LINE
  5
4036A
  8
OBJ
  6
CONTINUOUS
 10
46.855240499103537
 20
6.5086637206463784
 30
0.0
 11
46.715369132263042
 21
6.5086637206463784
 31
0.0
  0
TEXT
  5
4036B
  8
OBJ
  6
CONTINUOUS
 10
46.731675740339561
 20
6.4388883981425948
 30
0.0
 40
0.06
  1
N-
  7
SIMPLEX
  0
LINE
  5
4036C
  8
OBJ
  6
CONTINUOUS
 62
     7
 10
46.841950350830622
 20
7.2495257116131953
 30
0.0
 11
46.947720843481271
 21
7.2495257116131953
 31
0.0
  0
TEXT
  5
4036D
  8
OBJ
  6
CONTINUOUS
 10
48.13476782681002
 20
6.4716544876706363
 30
0.0
 40
0.0568138646237789
  1
Ia
  7
SIMPLEX
  0
LINE
  5
4036E
  8
OBJ
  6
CONTINUOUS
 10
48.221799004147393
 20
6.562306993454043
 30
0.0
 11
48.109832096344448
 21
6.562306993454043
 31
0.0
  0
LINE
  5
4036F
  8
OBJ
  6
CONTINUOUS
 10
48.109832096344448
 20
6.4347218915041786
 30
0.0
 11
48.221799004147393
 21
6.4347218915041786
 31
0.0
  0
LINE
  5
40370
  8
OBJ
  6
CONTINUOUS
 10
48.213813905751081
 20
6.3442370130093266
 30
0.0
 11
48.12012294997426
 21
6.3442370130093266
 31
0.0
  0
ARC
  5
40371
  8
OBJ
  6
CONTINUOUS
 10
47.814994097116973
 20
6.4423883469149468
 30
0.0
 40
0.0151100703786646
 50
179.9999999999971
 51
270.0
  0
ARC
  5
40372
  8
OBJ
  6
CONTINUOUS
 10
47.814994097116973
 20
6.4935536502677182
 30
0.0
 40
0.0151100703786646
 50
90.0
 51
180.0
  0
TEXT
  5
40373
  8
OBJ
  6
CONTINUOUS
 10
47.65910445800872
 20
6.4388883981425948
 30
0.0
 40
0.06
  1
Vb
  7
SIMPLEX
  0
LINE
  5
40374
  8
OBJ
  6
CONTINUOUS
 10
47.776850325529011
 20
6.5086637206463784
 30
0.0
 11
47.636978958688523
 21
6.5086637206463784
 31
0.0
  0
LINE
  5
40375
  8
OBJ
  6
CONTINUOUS
 10
47.636978958688523
 20
6.4272782765362768
 30
0.0
 11
47.776850325528997
 21
6.4272782765362768
 31
0.0
  0
ARC
  5
40376
  8
OBJ
  6
CONTINUOUS
 10
47.776850325528997
 20
6.4423883469149468
 30
0.0
 40
0.0151100703786646
 50
270.0
 51
359.9999999999971
  0
ARC
  5
40377
  8
OBJ
  6
CONTINUOUS
 10
47.776850325529011
 20
6.4935536502677182
 30
0.0
 40
0.0151100703786646
 50
0.0
 51
90.0
  0
LINE
  5
40378
  8
OBJ
  6
CONTINUOUS
 10
47.791960395907672
 20
6.4423883469149468
 30
0.0
 11
47.791960395907672
 21
6.4935536502677182
 31
0.0
  0
LINE
  5
40379
  8
OBJ
  6
CONTINUOUS
 10
47.799884026738319
 20
6.4935536502677182
 30
0.0
 11
47.799884026738319
 21
6.4423883469149468
 31
0.0
  0
LINE
  5
4037A
  8
OBJ
  6
CONTINUOUS
 10
47.969975534336122
 20
6.4423883469149468
 30
0.0
 11
47.969975534336122
 21
6.4935536502677182
 31
0.0
  0
ARC
  5
4037B
  8
OBJ
  6
CONTINUOUS
 10
47.954865463957461
 20
6.4935536502677182
 30
0.0
 40
0.0151100703786646
 50
0.0
 51
90.0
  0
ARC
  5
4037C
  8
OBJ
  6
CONTINUOUS
 10
47.954865463957447
 20
6.4423883469149468
 30
0.0
 40
0.0151100703786646
 50
270.0
 51
359.9999999999971
  0
TEXT
  5
4037D
  8
OBJ
  6
CONTINUOUS
 10
47.837119596437169
 20
6.4388883981425948
 30
0.0
 40
0.06
  1
Vc
  7
SIMPLEX
  0
LINE
  5
4037E
  8
OBJ
  6
CONTINUOUS
 10
47.814994097116973
 20
6.4272782765362768
 30
0.0
 11
47.954865463957447
 21
6.4272782765362768
 31
0.0
  0
LINE
  5
4037F
  8
OBJ
  6
CONTINUOUS
 10
47.954865463957461
 20
6.5086637206463784
 30
0.0
 11
47.814994097116973
 21
6.5086637206463784
 31
0.0
  0
LINE
  5
40380
  8
OBJ
  6
CONTINUOUS
 10
48.097744040041512
 20
6.5502189371511124
 30
0.0
 11
48.097744040041512
 21
6.4468099478071119
 31
0.0
  0
ARC
  5
40381
  8
OBJ
  6
CONTINUOUS
 10
48.109832096344448
 20
6.5502189371511053
 30
0.0
 40
0.0120880563029317
 50
90.0
 51
180.0
  0
ARC
  5
40382
  8
OBJ
  6
CONTINUOUS
 10
48.109832096344448
 20
6.4468099478071119
 30
0.0
 40
0.0120880563029317
 50
180.0
 51
270.0
  0
ARC
  5
40383
  8
OBJ
  6
CONTINUOUS
 10
48.12012294997426
 20
6.3321489567063969
 30
0.0
 40
0.0120880563029317
 50
90.0
 51
180.0
  0
LINE
  5
40384
  8
OBJ
  6
CONTINUOUS
 10
48.165815550245917
 20
6.3453402793695979
 30
0.0
 11
48.165815550245917
 21
6.4347218915041786
 31
0.0
  0
LINE
  5
40385
  8
OBJ
  6
CONTINUOUS
 10
48.233887060450343
 20
6.4468099478071119
 30
0.0
 11
48.233887060450343
 21
6.5502189371511124
 31
0.0
  0
ARC
  5
40386
  8
OBJ
  6
CONTINUOUS
 10
48.221799004147393
 20
6.5502189371511124
 30
0.0
 40
0.0120880563029317
 50
0.0
 51
90.0
  0
ARC
  5
40387
  8
OBJ
  6
CONTINUOUS
 10
48.221799004147393
 20
6.4468099478071119
 30
0.0
 40
0.0120880563029317
 50
270.0
 51
0.0
  0
ARC
  5
40388
  8
OBJ
  6
CONTINUOUS
 10
48.213813905751081
 20
6.3321489567063969
 30
0.0
 40
0.0120880563029317
 50
0.0
 51
90.0
  0
ARC
  5
40389
  8
OBJ
  6
CONTINUOUS
 10
47.459704660643638
 20
6.4935536502677182
 30
0.0
 40
0.0151100703786646
 50
90.0
 51
180.0
  0
ARC
  5
4038A
  8
OBJ
  6
CONTINUOUS
 10
47.459704660643638
 20
6.4423883469149468
 30
0.0
 40
0.0151100703786646
 50
179.9999999999971
 51
270.0
  0
LINE
  5
4038B
  8
OBJ
  6
CONTINUOUS
 10
47.444594590264998
 20
6.4935536502677182
 30
0.0
 11
47.444594590264998
 21
6.4423883469149468
 31
0.0
  0
ARC
  5
4038C
  8
OBJ
  6
CONTINUOUS
 10
47.420484199824912
 20
6.4423883469149468
 30
0.0
 40
0.0151100703786646
 50
270.0
 51
359.9999999999971
  0
LINE
  5
4038D
  8
OBJ
  6
CONTINUOUS
 10
47.435594270203588
 20
6.4423883469149468
 30
0.0
 11
47.435594270203588
 21
6.4935536502677182
 31
0.0
  0
ARC
  5
4038E
  8
OBJ
  6
CONTINUOUS
 10
47.420484199824926
 20
6.4935536502677182
 30
0.0
 40
0.0151100703786646
 50
0.0
 51
90.0
  0
LINE
  5
4038F
  8
OBJ
  6
CONTINUOUS
 10
47.621868888309884
 20
6.4935536502677182
 30
0.0
 11
47.621868888309884
 21
6.4423883469149468
 31
0.0
  0
ARC
  5
40390
  8
OBJ
  6
CONTINUOUS
 10
47.599576027484119
 20
6.4423883469149468
 30
0.0
 40
0.0151100703786646
 50
270.0
 51
359.9999999999971
  0
ARC
  5
40391
  8
OBJ
  6
CONTINUOUS
 10
47.599576027484133
 20
6.4935536502677182
 30
0.0
 40
0.0151100703786646
 50
0.0
 51
90.0
  0
LINE
  5
40392
  8
OBJ
  6
CONTINUOUS
 10
47.614686097862787
 20
6.4423883469149468
 30
0.0
 11
47.614686097862787
 21
6.4935536502677182
 31
0.0
  0
TEXT
  5
40393
  8
OBJ
  6
CONTINUOUS
 10
47.481830159963842
 20
6.4388883981425948
 30
0.0
 40
0.06
  1
Va
  7
SIMPLEX
  0
LINE
  5
40394
  8
OBJ
  6
CONTINUOUS
 10
47.599576027484133
 20
6.5086637206463784
 30
0.0
 11
47.459704660643638
 21
6.5086637206463784
 31
0.0
  0
LINE
  5
40395
  8
OBJ
  6
CONTINUOUS
 10
47.459704660643638
 20
6.4272782765362768
 30
0.0
 11
47.599576027484119
 21
6.4272782765362768
 31
0.0
  0
ARC
  5
40396
  8
OBJ
  6
CONTINUOUS
 10
47.636978958688523
 20
6.4935536502677182
 30
0.0
 40
0.0151100703786646
 50
90.0
 51
180.0
  0
ARC
  5
40397
  8
OBJ
  6
CONTINUOUS
 10
47.636978958688523
 20
6.4423883469149468
 30
0.0
 40
0.0151100703786646
 50
179.9999999999971
 51
270.0
  0
LINE
  5
40398
  8
OBJ
  6
CONTINUOUS
 10
48.980928939971498
 20
6.562306993454043
 30
0.0
 11
48.868962032168547
 21
6.562306993454043
 31
0.0
  0
LINE
  5
40399
  8
OBJ
  6
CONTINUOUS
 10
48.868962032168547
 20
6.4347218915041786
 30
0.0
 11
48.980928939971498
 21
6.4347218915041786
 31
0.0
  0
LINE
  5
4039A
  8
OBJ
  6
CONTINUOUS
 10
48.97294384157518
 20
6.3442370130093266
 30
0.0
 11
48.879252885798358
 21
6.3442370130093266
 31
0.0
  0
TEXT
  5
4039B
  8
OBJ
  6
CONTINUOUS
 10
48.514332794722058
 20
6.4716544876706363
 30
0.0
 40
0.0568138646237789
  1
Ib
  7
SIMPLEX
  0
LINE
  5
4039C
  8
OBJ
  6
CONTINUOUS
 10
48.689470401842343
 20
6.4493924800028557
 30
0.0
 11
48.78316135761915
 21
6.4493924800028557
 31
0.0
  0
LINE
  5
4039D
  8
OBJ
  6
CONTINUOUS
 10
48.78316135761915
 20
6.5340194969653664
 30
0.0
 11
48.689470401842343
 21
6.5340194969653664
 31
0.0
  0
LINE
  5
4039E
  8
OBJ
  6
CONTINUOUS
 10
48.772706382923758
 20
6.3841431436049083
 30
0.0
 11
48.735163002114007
 21
6.405818824621706
 31
0.0
  0
LINE
  5
4039F
  8
OBJ
  6
CONTINUOUS
 10
48.772706382923758
 20
6.3407917815713093
 30
0.0
 11
48.772706382923758
 21
6.3841431436049083
 31
0.0
  0
ARC
  5
403A0
  8
OBJ
  6
CONTINUOUS
 10
48.689470401842343
 20
6.4614805363057943
 30
0.0
 40
0.0120880563029317
 50
180.0
 51
269.99999999999972
  0
ARC
  5
403A1
  8
OBJ
  6
CONTINUOUS
 10
48.689470401842343
 20
6.5219314406624358
 30
0.0
 40
0.0120880563029317
 50
90.0
 51
180.0
  0
LINE
  5
403A2
  8
OBJ
  6
CONTINUOUS
 10
48.677382345539392
 20
6.5219314406624358
 30
0.0
 11
48.677382345539392
 21
6.4614805363057943
 31
0.0
  0
ARC
  5
403A3
  8
OBJ
  6
CONTINUOUS
 10
48.601363972059431
 20
6.4468099478071119
 30
0.0
 40
0.0120880563029317
 50
270.0
 51
0.0
  0
ARC
  5
403A4
  8
OBJ
  6
CONTINUOUS
 10
48.601363972059431
 20
6.5502189371511124
 30
0.0
 40
0.0120880563029317
 50
0.0
 51
90.0
  0
LINE
  5
403A5
  8
OBJ
  6
CONTINUOUS
 10
48.613452028362381
 20
6.4468099478071119
 30
0.0
 11
48.613452028362381
 21
6.5502189371511124
 31
0.0
  0
ARC
  5
403A6
  8
OBJ
  6
CONTINUOUS
 10
48.59337887366312
 20
6.3321489567063969
 30
0.0
 40
0.0120880563029317
 50
0.0
 51
90.0
  0
LINE
  5
403A7
  8
OBJ
  6
CONTINUOUS
 10
48.54538051815797
 20
6.3453402793695979
 30
0.0
 11
48.54538051815797
 21
6.4347218915041786
 31
0.0
  0
LINE
  5
403A8
  8
OBJ
  6
CONTINUOUS
 10
48.697619621304248
 20
6.3841431436049083
 30
0.0
 11
48.697619621304248
 21
6.3407917815713093
 31
0.0
  0
TEXT
  5
403A9
  8
OBJ
  6
CONTINUOUS
 10
48.699600355139047
 20
6.4694372417646608
 30
0.0
 40
0.05
  1
HI
  7
SIMPLEX
  0
LINE
  5
403AA
  8
OBJ
  6
CONTINUOUS
 10
48.735163002114007
 20
6.405818824621706
 30
0.0
 11
48.697619621304248
 21
6.3841431436049083
 31
0.0
  0
CIRCLE
  5
403AB
  8
OBJ
  6
CONTINUOUS
 10
48.735163002114007
 20
6.3624674625881088
 30
0.0
 40
0.028168665929907
  0
LINE
  5
403AC
  8
OBJ
  6
CONTINUOUS
 10
48.856873975865611
 20
6.5502189371511124
 30
0.0
 11
48.856873975865611
 21
6.4468099478071119
 31
0.0
  0
ARC
  5
403AD
  8
OBJ
  6
CONTINUOUS
 10
48.868962032168547
 20
6.5502189371511053
 30
0.0
 40
0.0120880563029317
 50
90.0
 51
180.0
  0
ARC
  5
403AE
  8
OBJ
  6
CONTINUOUS
 10
48.868962032168547
 20
6.4468099478071119
 30
0.0
 40
0.0120880563029317
 50
180.0
 51
270.0
  0
LINE
  5
403AF
  8
OBJ
  6
CONTINUOUS
 10
48.795249413922079
 20
6.4614805363057872
 30
0.0
 11
48.795249413922079
 21
6.5219314406624358
 31
0.0
  0
ARC
  5
403B0
  8
OBJ
  6
CONTINUOUS
 10
48.78316135761915
 20
6.4614805363057872
 30
0.0
 40
0.0120880563029317
 50
270.0
 51
0.0
  0
ARC
  5
403B1
  8
OBJ
  6
CONTINUOUS
 10
48.78316135761915
 20
6.5219314406624358
 30
0.0
 40
0.0120880563029317
 50
0.0
 51
90.0
  0
ARC
  5
403B2
  8
OBJ
  6
CONTINUOUS
 10
48.879252885798358
 20
6.3321489567063969
 30
0.0
 40
0.0120880563029317
 50
90.0
 51
180.0
  0
LINE
  5
403B3
  8
OBJ
  6
CONTINUOUS
 10
49.05694731345146
 20
6.5219314406624358
 30
0.0
 11
49.05694731345146
 21
6.4614805363057943
 31
0.0
  0
ARC
  5
403B4
  8
OBJ
  6
CONTINUOUS
 10
49.069035369754403
 20
6.5219314406624358
 30
0.0
 40
0.0120880563029317
 50
90.0
 51
180.0
  0
ARC
  5
403B5
  8
OBJ
  6
CONTINUOUS
 10
49.069035369754403
 20
6.4614805363057943
 30
0.0
 40
0.0120880563029317
 50
180.0
 51
269.99999999999972
  0
LINE
  5
403B6
  8
OBJ
  6
CONTINUOUS
 10
48.993016996274449
 20
6.4468099478071119
 30
0.0
 11
48.993016996274449
 21
6.5502189371511124
 31
0.0
  0
ARC
  5
403B7
  8
OBJ
  6
CONTINUOUS
 10
48.980928939971498
 20
6.5502189371511124
 30
0.0
 40
0.0120880563029317
 50
0.0
 51
90.0
  0
ARC
  5
403B8
  8
OBJ
  6
CONTINUOUS
 10
48.980928939971498
 20
6.4468099478071119
 30
0.0
 40
0.0120880563029317
 50
270.0
 51
0.0
  0
LINE
  5
403B9
  8
OBJ
  6
CONTINUOUS
 10
49.114425768618489
 20
6.405818824621706
 30
0.0
 11
49.076882387808737
 21
6.3841431436049083
 31
0.0
  0
TEXT
  5
403BA
  8
OBJ
  6
CONTINUOUS
 10
48.893897762634133
 20
6.4716544876706363
 30
0.0
 40
0.0568138646237789
  1
Ic
  7
SIMPLEX
  0
ARC
  5
403BB
  8
OBJ
  6
CONTINUOUS
 10
48.97294384157518
 20
6.3321489567063969
 30
0.0
 40
0.0120880563029317
 50
0.0
 51
90.0
  0
LINE
  5
403BC
  8
OBJ
  6
CONTINUOUS
 10
48.92494548607003
 20
6.3453402793695979
 30
0.0
 11
48.92494548607003
 21
6.4347218915041786
 31
0.0
  0
LINE
  5
403BD
  8
OBJ
  6
CONTINUOUS
 10
49.076882387808737
 20
6.3841431436049083
 30
0.0
 11
49.076882387808737
 21
6.3407917815713093
 31
0.0
  0
ARC
  5
403BE
  8
OBJ
  6
CONTINUOUS
 10
48.403596389707097
 20
6.5219314406624358
 30
0.0
 40
0.0120880563029317
 50
0.0
 51
90.0
  0
ARC
  5
403BF
  8
OBJ
  6
CONTINUOUS
 10
48.403596389707097
 20
6.4614805363057872
 30
0.0
 40
0.0120880563029317
 50
270.0
 51
0.0
  0
LINE
  5
403C0
  8
OBJ
  6
CONTINUOUS
 10
48.297817377627347
 20
6.5219314406624358
 30
0.0
 11
48.297817377627347
 21
6.4614805363057943
 31
0.0
  0
ARC
  5
403C1
  8
OBJ
  6
CONTINUOUS
 10
48.309905433930297
 20
6.5219314406624358
 30
0.0
 40
0.0120880563029317
 50
90.0
 51
180.0
  0
ARC
  5
403C2
  8
OBJ
  6
CONTINUOUS
 10
48.309905433930297
 20
6.4614805363057943
 30
0.0
 40
0.0120880563029317
 50
180.0
 51
269.99999999999972
  0
LINE
  5
403C3
  8
OBJ
  6
CONTINUOUS
 10
48.355598034201947
 20
6.405818824621706
 30
0.0
 11
48.318054653392188
 21
6.3841431436049083
 31
0.0
  0
TEXT
  5
403C4
  8
OBJ
  6
CONTINUOUS
 10
48.320035387227009
 20
6.4694372417646608
 30
0.0
 40
0.05
  1
HI
  7
SIMPLEX
  0
LINE
  5
403C5
  8
OBJ
  6
CONTINUOUS
 10
48.403596389707097
 20
6.5340194969653664
 30
0.0
 11
48.309905433930297
 21
6.5340194969653664
 31
0.0
  0
LINE
  5
403C6
  8
OBJ
  6
CONTINUOUS
 10
48.309905433930297
 20
6.4493924800028557
 30
0.0
 11
48.403596389707097
 21
6.4493924800028557
 31
0.0
  0
LINE
  5
403C7
  8
OBJ
  6
CONTINUOUS
 10
48.393141415011691
 20
6.3841431436049083
 30
0.0
 11
48.355598034201947
 21
6.405818824621706
 31
0.0
  0
LINE
  5
403C8
  8
OBJ
  6
CONTINUOUS
 10
48.393141415011691
 20
6.3407917815713093
 30
0.0
 11
48.393141415011691
 21
6.3841431436049083
 31
0.0
  0
LINE
  5
403C9
  8
OBJ
  6
CONTINUOUS
 10
48.318054653392188
 20
6.3841431436049083
 30
0.0
 11
48.318054653392188
 21
6.3407917815713093
 31
0.0
  0
CIRCLE
  5
403CA
  8
OBJ
  6
CONTINUOUS
 10
48.355598034201961
 20
6.3624674625881088
 30
0.0
 40
0.028168665929907
  0
LINE
  5
403CB
  8
OBJ
  6
CONTINUOUS
 10
48.477309007953551
 20
6.5502189371511124
 30
0.0
 11
48.477309007953551
 21
6.4468099478071119
 31
0.0
  0
LINE
  5
403CC
  8
OBJ
  6
CONTINUOUS
 10
48.41568444601004
 20
6.4614805363057872
 30
0.0
 11
48.41568444601004
 21
6.5219314406624358
 31
0.0
  0
ARC
  5
403CD
  8
OBJ
  6
CONTINUOUS
 10
48.489397064256501
 20
6.4468099478071119
 30
0.0
 40
0.0120880563029317
 50
180.0
 51
270.0
  0
ARC
  5
403CE
  8
OBJ
  6
CONTINUOUS
 10
48.489397064256501
 20
6.5502189371511053
 30
0.0
 40
0.0120880563029317
 50
90.0
 51
180.0
  0
ARC
  5
403CF
  8
OBJ
  6
CONTINUOUS
 10
48.499687917886298
 20
6.3321489567063969
 30
0.0
 40
0.0120880563029317
 50
90.0
 51
180.0
  0
LINE
  5
403D0
  8
OBJ
  6
CONTINUOUS
 10
48.489397064256501
 20
6.4347218915041786
 30
0.0
 11
48.601363972059431
 21
6.4347218915041786
 31
0.0
  0
LINE
  5
403D1
  8
OBJ
  6
CONTINUOUS
 10
48.601363972059431
 20
6.562306993454043
 30
0.0
 11
48.489397064256501
 21
6.562306993454043
 31
0.0
  0
LINE
  5
403D2
  8
OBJ
  6
CONTINUOUS
 10
48.59337887366312
 20
6.3442370130093266
 30
0.0
 11
48.499687917886298
 21
6.3442370130093266
 31
0.0
  0
ARC
  5
403D3
  8
OBJ
  6
HIDDEN
 62
     7
 10
49.095164045697068
 20
7.0017205574030958
 30
0.0
 40
0.0398905857996746
 50
90.0
 51
270.0
  0
LINE
  5
403D4
  8
OBJ
  6
CONTINUOUS
 62
     7
 10
47.407671385807816
 20
7.8750826252899113
 30
0.0
 11
47.178829369922951
 21
7.8750826252899113
 31
0.0
  0
CIRCLE
  5
403D5
  8
OBJ
  6
CONTINUOUS
 62
     7
 10
47.366269792970272
 20
7.2993889438627884
 30
0.0
 40
0.0212447589524025
  0
ARC
  5
403D6
  8
OBJ
  6
CONTINUOUS
 62
     7
 10
46.572235594571453
 20
7.504885901012627
 30
0.0
 40
0.0755503518933231
 50
90.0
 51
180.0
  0
ARC
  5
403D7
  8
OBJ
  6
CONTINUOUS
 10
46.964390882858979
 20
7.4541160645403144
 30
0.0
 40
0.0120880563029317
 50
354.61068824002513
 51
89.999999999997371
  0
LINE
  5
403D8
  8
OBJ
  6
CONTINUOUS
 10
46.976425503941833
 20
7.4529807229287188
 30
0.0
 11
46.967188404314108
 21
7.355067466874976
 31
0.0
  0
CIRCLE
  5
403D9
  8
OBJ
  6
CONTINUOUS
 10
46.956848574011417
 20
7.4374498326867542
 30
0.0
 40
0.0135952901026457
  0
LINE
  5
403DA
  8
OBJ
  6
CONTINUOUS
 62
     7
 10
46.978243185646171
 20
7.3380707240321721
 30
0.0
 11
46.812032411480857
 21
7.3380707240321721
 31
0.0
  0
LINE
  5
403DB
  8
OBJ
  6
CONTINUOUS
 62
     7
 10
46.978243185646171
 20
7.4722481489947068
 30
0.0
 11
46.812032411480857
 21
7.4722481489947201
 31
0.0
  0
LINE
  5
403DC
  8
OBJ
  6
CONTINUOUS
 10
46.812032411480857
 20
7.4722481489947201
 30
0.0
 11
46.812032411480857
 21
7.4722481489947201
 31
0.0
  0
ARC
  5
403DD
  8
OBJ
  6
CONTINUOUS
 10
46.825376409913282
 20
7.4541160645403188
 30
0.0
 40
0.0120880563029317
 50
89.999999999997044
 51
185.65442082263891
  0
LINE
  5
403DE
  8
OBJ
  6
CONTINUOUS
 62
     7
 10
46.964390882858979
 20
7.4662041208432388
 30
0.0
 11
46.825376409913282
 21
7.4662041208432486
 31
0.0
  0
ARC
  5
403DF
  8
OBJ
  6
CONTINUOUS
 62
     7
 10
46.81203241148085
 20
7.4323575631950343
 30
0.0
 40
0.0398905857996746
 50
90.0
 51
161.44699546497839
  0
ARC
  5
403E0
  8
OBJ
  6
CONTINUOUS
 10
46.95515378323126
 20
7.3562028084865716
 30
0.0
 40
0.0120880563029317
 50
270.00000000000023
 51
354.61068824002541
  0
CIRCLE
  5
403E1
  8
OBJ
  6
CONTINUOUS
 10
46.948196975573083
 20
7.3769346678390502
 30
0.0
 40
0.0129773264183839
  0
ARC
  5
403E2
  8
OBJ
  6
CONTINUOUS
 10
46.835070791700787
 20
7.3562028084865716
 30
0.0
 40
0.0120880563029317
 50
185.65442082264019
 51
270.0
  0
CIRCLE
  5
403E3
  8
OBJ
  6
CONTINUOUS
 10
46.842524508792792
 20
7.3769346678390502
 30
0.0
 40
0.0129773264183839
  0
CIRCLE
  5
403E4
  8
OBJ
  6
CONTINUOUS
 10
46.878984597691328
 20
7.3769346678390502
 30
0.0
 40
0.0129773264183839
  0
CIRCLE
  5
403E5
  8
OBJ
  6
CONTINUOUS
 10
46.910500941496231
 20
7.3769346678390502
 30
0.0
 40
0.0129773264183839
  0
LINE
  5
403E6
  8
OBJ
  6
CONTINUOUS
 62
     7
 10
46.95515378323126
 20
7.3441147521836374
 30
0.0
 11
46.835070791700787
 21
7.3441147521836374
 31
0.0
  0
LINE
  5
403E7
  8
OBJ
  6
CONTINUOUS
 62
     7
 10
46.947720843481271
 20
7.2948559227491927
 30
0.0
 11
46.841950350830622
 21
7.2948559227491927
 31
0.0
  0
ARC
  5
403E8
  8
OBJ
  6
CONTINUOUS
 62
     7
 10
46.81203241148085
 20
7.3779613098318482
 30
0.0
 40
0.0398905857996746
 50
198.5530045350211
 51
270.0
  0
LINE
  5
403E9
  8
OBJ
  6
CONTINUOUS
 10
46.813347170893458
 20
7.4529250507759812
 30
0.0
 11
46.823041552680962
 21
7.3550117947222331
 31
0.0
  0
CIRCLE
  5
403EA
  8
OBJ
  6
CONTINUOUS
 10
46.834490945277828
 20
7.4374498326867542
 30
0.0
 40
0.0135952901026457
  0
CIRCLE
  5
403EB
  8
OBJ
  6
CONTINUOUS
 10
46.86724321645125
 20
7.4374498326867542
 30
0.0
 40
0.0135952901026457
  0
CIRCLE
  5
403EC
  8
OBJ
  6
CONTINUOUS
 10
46.898141614381679
 20
7.4374498326867542
 30
0.0
 40
0.0135952901026457
  0
CIRCLE
  5
403ED
  8
OBJ
  6
CONTINUOUS
 10
46.927186103449529
 20
7.4374498326867542
 30
0.0
 40
0.0135952901026457
  0
ARC
  5
403EE
  8
OBJ
  6
CONTINUOUS
 62
     7
 10
46.978243185646171
 20
7.4323575631950343
 30
0.0
 40
0.0398905857996746
 50
18.553004535021518
 51
90.0
  0
LINE
  5
403EF
  8
OBJ
  6
CONTINUOUS
 62
     7
 10
47.016060646123798
 20
7.4450500223131222
 30
0.0
 11
47.044727495312287
 21
7.4450500223131222
 31
0.0
  0
ARC
  5
403F0
  8
OBJ
  6
CONTINUOUS
 62
     7
 10
46.978243185646171
 20
7.3779613098318482
 30
0.0
 40
0.0398905857996746
 50
270.0
 51
341.44699546497878
  0
CIRCLE
  5
403F1
  8
OBJ
  6
CONTINUOUS
 10
47.044727495312287
 20
7.4051594365134434
 30
0.0
 40
0.0156178499896015
  0
LINE
  5
403F2
  8
OBJ
  6
CONTINUOUS
 62
     7
 10
47.016060646123798
 20
7.36526885071377
 30
0.0
 11
47.044727495312287
 21
7.36526885071377
 31
0.0
  0
ARC
  5
403F3
  8
OBJ
  6
CONTINUOUS
 62
     7
 10
47.044727495312287
 20
7.4051594365134434
 30
0.0
 40
0.0398905857996746
 50
270.0
 51
90.0
  0
CIRCLE
  5
403F4
  8
OBJ
  6
CONTINUOUS
 62
     7
 10
47.184948948426303
 20
7.2993889438627884
 30
0.0
 40
0.0212447589524025
  0
CIRCLE
  5
403F5
  8
OBJ
  6
CONTINUOUS
 62
     7
 10
47.275609370698298
 20
7.2993889438627884
 30
0.0
 40
0.0212447589524025
  0
LINE
  5
403F6
  8
OBJ
  6
CONTINUOUS
 62
     7
 10
47.101843561343649
 20
7.3537851972259816
 30
0.0
 11
47.101843561343649
 21
7.4595556898766393
 31
0.0
  0
ARC
  5
403F7
  8
OBJ
  6
CONTINUOUS
 62
     7
 10
46.745548101814727
 20
7.4051594365134434
 30
0.0
 40
0.0398905857996746
 50
90.0
 51
270.0
  0
LINE
  5
403F8
  8
OBJ
  6
CONTINUOUS
 62
     7
 10
46.745548101814727
 20
7.4450500223131222
 30
0.0
 11
46.774214951003231
 21
7.4450500223131222
 31
0.0
  0
LINE
  5
403F9
  8
OBJ
  6
CONTINUOUS
 62
     7
 10
46.745548101814727
 20
7.36526885071377
 30
0.0
 11
46.774214951003231
 21
7.36526885071377
 31
0.0
  0
CIRCLE
  5
403FA
  8
OBJ
  6
CONTINUOUS
 10
46.745548101814727
 20
7.4051594365134434
 30
0.0
 40
0.0156178499896015
  0
LINE
  5
403FB
  8
OBJ
  6
CONTINUOUS
 62
     7
 10
46.949987354038072
 20
7.8002877769155212
 30
0.0
 11
47.178829369922951
 21
7.8750826252899113
 31
0.0
  0
LINE
  5
403FC
  8
OBJ
  6
CONTINUOUS
 62
     7
 10
46.949987354038072
 20
7.8002877769155283
 30
0.0
 11
46.949987354038072
 21
7.7318391581001729
 31
0.0
  0
CIRCLE
  5
403FD
  8
OBJ
  6
CONTINUOUS
 62
     7
 10
47.710779397603837
 20
7.2993889438627884
 30
0.0
 40
0.0212447589524025
  0
CIRCLE
  5
403FE
  8
OBJ
  6
CONTINUOUS
 62
     7
 10
48.05528900223738
 20
7.2993889438627884
 30
0.0
 40
0.0212447589524025
  0
CIRCLE
  5
403FF
  8
OBJ
  6
CONTINUOUS
 62
     7
 10
47.964628579965392
 20
7.2993889438627884
 30
0.0
 40
0.0212447589524025
  0
CIRCLE
  5
40400
  8
OBJ
  6
CONTINUOUS
 62
     7
 10
47.873968157693412
 20
7.2993889438627884
 30
0.0
 40
0.0212447589524025
  0
CIRCLE
  5
40401
  8
OBJ
  6
CONTINUOUS
 62
     7
 10
48.21847776232697
 20
7.2993889438627884
 30
0.0
 40
0.0212447589524025
  0
CIRCLE
  5
40402
  8
OBJ
  6
CONTINUOUS
 62
     7
 10
47.529458553059847
 20
7.2993889438627884
 30
0.0
 40
0.0212447589524025
  0
CIRCLE
  5
40403
  8
OBJ
  6
CONTINUOUS
 62
     7
 10
47.620118975331827
 20
7.2993889438627884
 30
0.0
 40
0.0212447589524025
  0
CIRCLE
  5
40404
  8
OBJ
  6
CONTINUOUS
 62
     7
 10
48.399798606870917
 20
7.2993889438627884
 30
0.0
 40
0.0212447589524025
  0
CIRCLE
  5
40405
  8
OBJ
  6
CONTINUOUS
 62
     7
 10
48.30913818459895
 20
7.2993889438627884
 30
0.0
 40
0.0212447589524025
  0
LINE
  5
40406
  8
OBJ
  6
CONTINUOUS
 62
     7
 10
48.616477016100987
 20
7.8750826252899113
 30
0.0
 11
47.474457896881511
 21
7.8750826252899113
 31
0.0
  0
ARC
  5
40407
  8
OBJ
  6
CONTINUOUS
 62
     7
 10
47.441064641344667
 20
7.800287776915515
 30
0.0
 40
0.0333932555368488
 50
180.0
 51
0.0
  0
LINE
  5
40408
  8
OBJ
  6
CONTINUOUS
 62
     7
 10
47.407671385807816
 20
7.8002877769155212
 30
0.0
 11
47.407671385807816
 21
7.8750826252899113
 31
0.0
  0
LINE
  5
40409
  8
OBJ
  6
CONTINUOUS
 62
     7
 10
47.474457896881511
 20
7.8002877769155212
 30
0.0
 11
47.474457896881511
 21
7.8750826252899113
 31
0.0
  0
LINE
  5
4040A
  8
OBJ
  6
CONTINUOUS
 62
     7
 10
48.91210554305956
 20
7.8750826252899211
 30
0.0
 11
48.683263527174681
 21
7.8750826252899211
 31
0.0
  0
ARC
  5
4040B
  8
OBJ
  6
CONTINUOUS
 62
     7
 10
48.649870271637838
 20
7.800287776915515
 30
0.0
 40
0.0333932555368488
 50
180.0
 51
0.0
  0
LINE
  5
4040C
  8
OBJ
  6
CONTINUOUS
 62
     7
 10
48.616477016100987
 20
7.8002877769155212
 30
0.0
 11
48.616477016100987
 21
7.8750826252899113
 31
0.0
  0
LINE
  5
4040D
  8
OBJ
  6
CONTINUOUS
 62
     7
 10
48.683263527174681
 20
7.8002877769155212
 30
0.0
 11
48.683263527174681
 21
7.8750826252899211
 31
0.0
  0
LINE
  5
4040E
  8
OBJ
  6
CONTINUOUS
 62
     7
 10
49.632024846251042
 20
5.8334099157247588
 30
0.0
 11
49.632024846251042
 21
7.7318391581001729
 31
0.0
  0
LINE
  5
4040F
  8
OBJ
  6
CONTINUOUS
 62
     7
 10
49.594249670304379
 20
6.1072043909861513
 30
0.0
 11
49.594249670304379
 21
7.504885901012627
 31
0.0
  0
LINE
  5
40410
  8
OBJ
  6
CONTINUOUS
 10
49.494292937938113
 20
6.3191161005545098
 30
0.0
 11
49.531836318747857
 21
6.3407917815713093
 31
0.0
  0
CIRCLE
  5
40411
  8
OBJ
  6
CONTINUOUS
 62
     7
 10
49.494292937938113
 20
6.3624674625881088
 30
0.0
 40
0.0779075228723947
  0
LINE
  5
40412
  8
OBJ
  6
CONTINUOUS
 10
49.456749557128362
 20
6.3407917815713093
 30
0.0
 11
49.494292937938113
 21
6.3191161005545098
 31
0.0
  0
LINE
  5
40414
  8
OBJ
  6
CONTINUOUS
 10
49.364596865790169
 20
6.2716980523497483
 30
0.0
 11
49.364596865790169
 21
6.3321489567063969
 31
0.0
  0
LINE
  5
40415
  8
OBJ
  6
CONTINUOUS
 10
49.24672979740749
 20
6.3321489567063969
 30
0.0
 11
49.24672979740749
 21
6.2716980523497554
 31
0.0
  0
TEXT
  5
40416
  8
OBJ
  6
CONTINUOUS
 10
49.268947807007137
 20
6.2796547578086219
 30
0.0
 40
0.05
  1
LO
  7
SIMPLEX
  0
CIRCLE
  5
40419
  8
OBJ
  6
CONTINUOUS
 39
0.5282410363257157
 10
49.142391927613957
 20
-1.7410360784050449
 30
0.0
 40
0.0093714308432137
  0
TEXT
  5
4041B
  8
OBJ
  6
CONTINUOUS
 10
49.860486125683579
 20
-1.5909284881531101
 30
0.0
 40
0.0661329443497673
  1
LINE
  0
LINE
  5
4041C
  8
0
 10
49.778617700845878
 20
-1.457032971953665
 30
0.0
 11
49.778617700845878
 21
-2.1219009007946421
 31
0.0
  0
LINE
  5
40422
  8
OBJ
  6
CONTINUOUS
 39
0.5282410363257157
 10
49.304642719870792
 20
-0.5575653449581495
 30
0.0
 11
49.283558263508517
 21
-0.5364808885958823
 31
0.0
  0
LINE
  5
40424
  8
OBJ
  6
CONTINUOUS
 39
0.5282410363257157
 10
49.304642719870792
 20
4.6863411627774081
 30
0.0
 11
49.283558263508517
 21
4.7074256191396762
 31
0.0
  0
CIRCLE
  5
40425
  8
OBJ
  6
CONTINUOUS
 39
0.5282410363257157
 10
49.142391927613957
 20
3.5028704293305131
 30
0.0
 40
0.0093714308432137
  0
CIRCLE
  5
40426
  8
OBJ
  6
CONTINUOUS
 62
     7
 10
49.30451045398209
 20
0.9187784708965125
 30
0.0
 40
0.0779075228723947
  0
LINE
  5
4042A
  8
OBJ
  6
CONTINUOUS
 62
     7
 10
49.594249670304379
 20
0.8632978832505919
 30
0.0
 11
49.594249670304379
 21
2.2609793932770681
 31
0.0
  0
LINE
  5
4042B
  8
OBJ
  6
CONTINUOUS
 62
     7
 10
49.632024846251042
 20
0.5895034079892004
 30
0.0
 11
49.632024846251042
 21
2.487932650364614
 31
0.0
  0
LINE
  5
4042C
  8
OBJ
  6
CONTINUOUS
 10
49.571382618388689
 20
-0.705528119030177
 30
0.0
 11
49.571382618388668
 21
-0.4966545635655813
 31
0.0
  0
LINE
  5
4042F
  8
OBJ
  6
CONTINUOUS
 10
49.276030371915489
 20
-0.5910771939870722
 30
0.0
 11
49.332990536048712
 21
-0.6480373581202948
 31
0.0
  0
CIRCLE
  5
40430
  8
OBJ
  6
CONTINUOUS
 10
49.304510453982097
 20
-0.6195572760536763
 30
0.0
 40
0.0402769183160991
  0
CIRCLE
  5
40431
  8
OBJ
  6
CONTINUOUS
 10
49.494292937938113
 20
-0.6195572760536763
 30
0.0
 40
0.0402769183160991
  0
LINE
  5
40432
  8
OBJ
  6
CONTINUOUS
 10
49.465812855871512
 20
-0.5910771939870722
 30
0.0
 11
49.522773020004728
 21
-0.6480373581202948
 31
0.0
  0
ARC
  5
40433
  8
OBJ
  6
CONTINUOUS
 62
     7
 10
49.518699318411059
 20
0.8632978832505919
 30
0.0
 40
0.0755503518933231
 50
270.0
 51
0.0
  0
LINE
  5
40434
  8
OBJ
  6
CONTINUOUS
 62
     7
 10
49.140947558944447
 20
0.5895034079892004
 30
0.0
 11
49.140947558944447
 21
0.5210547891738422
 31
0.0
  0
POINT
  5
40435
  8
OBJ
  6
BYBLOCK
 62
     0
 10
49.632024846251042
 20
0.5895034079892004
 30
0.0
  0
ARC
  5
40436
  8
OBJ
  6
HIDDEN
 62
     7
 10
49.327859129528512
 20
1.7850121763491349
 30
0.0
 40
0.0398905857996746
 50
18.553004535021518
 51
90.0
  0
ARC
  5
40437
  8
OBJ
  6
HIDDEN
 62
     7
 10
49.161648355363212
 20
1.7850121763491349
 30
0.0
 40
0.0398905857996746
 50
90.0
 51
161.44699546497839
  0
LINE
  5
40438
  8
OBJ
  6
CONTINUOUS
 10
49.30451045398209
 20
1.1014337716340381
 30
0.0
 11
49.30451045398209
 21
1.19081538376862
 31
0.0
  0
LINE
  5
40439
  8
OBJ
  6
CONTINUOUS
 10
49.35250880948724
 20
1.1003305052737671
 30
0.0
 11
49.258817853710433
 21
1.1003305052737671
 31
0.0
  0
ARC
  5
4043A
  8
OBJ
  6
CONTINUOUS
 10
49.35250880948724
 20
1.088242448970838
 30
0.0
 40
0.0120880563029317
 50
0.0
 51
90.0
  0
TEXT
  5
4043B
  8
OBJ
  6
CONTINUOUS
 10
49.273462730546179
 20
1.227747979935077
 30
0.0
 40
0.0568138646237789
  1
In
  7
SIMPLEX
  0
LINE
  5
4043C
  8
OBJ
  6
CONTINUOUS
 10
49.372581964186502
 20
1.202903440071553
 30
0.0
 11
49.372581964186502
 21
1.306312429415553
 31
0.0
  0
ARC
  5
4043D
  8
OBJ
  6
CONTINUOUS
 10
49.360493907883551
 20
1.306312429415553
 30
0.0
 40
0.0120880563029317
 50
0.0
 51
90.0
  0
ARC
  5
4043E
  8
OBJ
  6
CONTINUOUS
 10
49.360493907883551
 20
1.202903440071553
 30
0.0
 40
0.0120880563029317
 50
270.0
 51
0.0
  0
LINE
  5
4043F
  8
OBJ
  6
CONTINUOUS
 10
49.151969149428247
 20
1.0968852738357491
 30
0.0
 11
49.151969149428247
 21
1.1402366358693481
 31
0.0
  0
LINE
  5
40440
  8
OBJ
  6
CONTINUOUS
 10
49.174814381834153
 20
1.217574028570227
 30
0.0
 11
49.174814381834153
 21
1.2780249329268769
 31
0.0
  0
ARC
  5
40441
  8
OBJ
  6
CONTINUOUS
 10
49.16272632553121
 20
1.217574028570227
 30
0.0
 40
0.0120880563029317
 50
270.0
 51
0.0
  0
ARC
  5
40442
  8
OBJ
  6
CONTINUOUS
 10
49.16272632553121
 20
1.2780249329268769
 30
0.0
 40
0.0120880563029317
 50
0.0
 51
90.0
  0
LINE
  5
40443
  8
OBJ
  6
CONTINUOUS
 10
49.236438943777671
 20
1.306312429415553
 30
0.0
 11
49.236438943777671
 21
1.202903440071553
 31
0.0
  0
ARC
  5
40444
  8
OBJ
  6
CONTINUOUS
 10
49.248527000080607
 20
1.306312429415545
 30
0.0
 40
0.0120880563029317
 50
90.0
 51
180.0
  0
ARC
  5
40445
  8
OBJ
  6
CONTINUOUS
 10
49.248527000080607
 20
1.202903440071553
 30
0.0
 40
0.0120880563029317
 50
180.0
 51
270.0
  0
ARC
  5
40446
  8
OBJ
  6
CONTINUOUS
 10
49.258817853710433
 20
1.088242448970838
 30
0.0
 40
0.0120880563029317
 50
90.0
 51
180.0
  0
LINE
  5
40447
  8
OBJ
  6
CONTINUOUS
 10
49.360493907883551
 20
1.318400485718483
 30
0.0
 11
49.248527000080607
 21
1.318400485718483
 31
0.0
  0
LINE
  5
40448
  8
OBJ
  6
CONTINUOUS
 10
49.248527000080607
 20
1.19081538376862
 30
0.0
 11
49.360493907883551
 21
1.19081538376862
 31
0.0
  0
LINE
  5
40449
  8
OBJ
  6
CONTINUOUS
 10
49.531836318747857
 20
1.0968852738357491
 30
0.0
 11
49.531836318747857
 21
1.1402366358693481
 31
0.0
  0
ARC
  5
4044A
  8
OBJ
  6
CONTINUOUS
 10
49.54229129344327
 20
1.2780249329268769
 30
0.0
 40
0.0120880563029317
 50
0.0
 51
90.0
  0
ARC
  5
4044B
  8
OBJ
  6
CONTINUOUS
 10
49.54229129344327
 20
1.217574028570227
 30
0.0
 40
0.0120880563029317
 50
270.0
 51
0.0
  0
LINE
  5
4044C
  8
OBJ
  6
CONTINUOUS
 10
49.554379349746199
 20
1.217574028570227
 30
0.0
 11
49.554379349746199
 21
1.2780249329268769
 31
0.0
  0
LINE
  5
4044D
  8
OBJ
  6
CONTINUOUS
 10
49.456749557128362
 20
1.1402366358693481
 30
0.0
 11
49.456749557128362
 21
1.0968852738357491
 31
0.0
  0
ARC
  5
4044E
  8
OBJ
  6
CONTINUOUS
 10
49.448600337666448
 20
1.2780249329268769
 30
0.0
 40
0.0120880563029317
 50
90.0
 51
180.0
  0
ARC
  5
4044F
  8
OBJ
  6
CONTINUOUS
 10
49.448600337666448
 20
1.217574028570235
 30
0.0
 40
0.0120880563029317
 50
180.0
 51
269.99999999999972
  0
LINE
  5
40450
  8
OBJ
  6
CONTINUOUS
 10
49.43651228136352
 20
1.2780249329268769
 30
0.0
 11
49.43651228136352
 21
1.217574028570235
 31
0.0
  0
LINE
  5
40451
  8
OBJ
  6
CONTINUOUS
 10
49.494292937938113
 20
1.161912316886146
 30
0.0
 11
49.456749557128362
 21
1.1402366358693481
 31
0.0
  0
CIRCLE
  5
40452
  8
OBJ
  6
CONTINUOUS
 10
49.494292937938113
 20
1.118560954852551
 30
0.0
 40
0.028168665929907
  0
LINE
  5
40453
  8
OBJ
  6
CONTINUOUS
 10
49.531836318747857
 20
1.1402366358693481
 30
0.0
 11
49.494292937938113
 21
1.161912316886146
 31
0.0
  0
LINE
  5
40454
  8
OBJ
  6
CONTINUOUS
 10
49.54229129344327
 20
1.2901129892298071
 30
0.0
 11
49.448600337666448
 21
1.2901129892298071
 31
0.0
  0
LINE
  5
40455
  8
OBJ
  6
CONTINUOUS
 10
49.448600337666448
 20
1.205485972267297
 30
0.0
 11
49.54229129344327
 21
1.205485972267297
 31
0.0
  0
TEXT
  5
40456
  8
OBJ
  6
CONTINUOUS
 10
49.458730290963167
 20
1.225530734029102
 30
0.0
 40
0.05
  1
HI
  7
SIMPLEX
  0
CIRCLE
  5
40457
  8
OBJ
  6
CONTINUOUS
 10
49.30451045398209
 20
0.9187784708965125
 30
0.0
 40
0.028168665929907
  0
LINE
  5
40458
  8
OBJ
  6
CONTINUOUS
 10
49.266967073172331
 20
0.9404541519133111
 30
0.0
 11
49.266967073172331
 21
0.8971027898797157
 31
0.0
  0
LINE
  5
40459
  8
OBJ
  6
CONTINUOUS
 10
49.342053834791841
 20
0.8971027898797157
 30
0.0
 11
49.342053834791841
 21
0.9404541519133111
 31
0.0
  0
LINE
  5
4045A
  8
OBJ
  6
CONTINUOUS
 10
49.304510453982097
 20
0.8754271088629188
 30
0.0
 11
49.342053834791841
 21
0.8971027898797157
 31
0.0
  0
LINE
  5
4045B
  8
OBJ
  6
CONTINUOUS
 10
49.266967073172331
 20
0.8971027898797157
 30
0.0
 11
49.304510453982097
 21
0.8754271088629188
 31
0.0
  0
LINE
  5
4045C
  8
OBJ
  6
CONTINUOUS
 10
49.258817853710433
 20
1.0157034883112579
 30
0.0
 11
49.35250880948724
 21
1.0157034883112579
 31
0.0
  0
LINE
  5
4045D
  8
OBJ
  6
CONTINUOUS
 10
49.342053834791841
 20
0.9404541519133111
 30
0.0
 11
49.304510453982097
 21
0.9621298329301133
 31
0.0
  0
LINE
  5
4045E
  8
OBJ
  6
CONTINUOUS
 10
49.304510453982097
 20
0.9621298329301133
 30
0.0
 11
49.266967073172331
 21
0.9404541519133111
 31
0.0
  0
ARC
  5
4045F
  8
OBJ
  6
CONTINUOUS
 10
49.35250880948724
 20
1.0277915446141881
 30
0.0
 40
0.0120880563029317
 50
270.0
 51
0.0
  0
ARC
  5
40460
  8
OBJ
  6
CONTINUOUS
 10
49.258817853710433
 20
1.0277915446141961
 30
0.0
 40
0.0120880563029317
 50
180.0
 51
269.99999999999972
  0
TEXT
  5
40461
  8
OBJ
  6
CONTINUOUS
 10
49.268947807007137
 20
1.0357482500730619
 30
0.0
 40
0.05
  1
LO
  7
SIMPLEX
  0
LINE
  5
40462
  8
OBJ
  6
CONTINUOUS
 10
49.24672979740749
 20
1.088242448970838
 30
0.0
 11
49.24672979740749
 21
1.0277915446141961
 31
0.0
  0
LINE
  5
40463
  8
OBJ
  6
CONTINUOUS
 10
49.364596865790169
 20
1.0277915446141881
 30
0.0
 11
49.364596865790169
 21
1.088242448970838
 31
0.0
  0
LINE
  5
40464
  8
OBJ
  6
CONTINUOUS
 10
49.456749557128362
 20
1.0968852738357491
 30
0.0
 11
49.494292937938113
 21
1.07520959281895
 31
0.0
  0
CIRCLE
  5
40465
  8
OBJ
  6
CONTINUOUS
 62
     7
 10
49.494292937938113
 20
1.118560954852551
 30
0.0
 40
0.0779075228723947
  0
LINE
  5
40466
  8
OBJ
  6
CONTINUOUS
 10
49.494292937938113
 20
1.07520959281895
 30
0.0
 11
49.531836318747857
 21
1.0968852738357491
 31
0.0
  0
LINE
  5
40467
  8
OBJ
  6
HIDDEN
 62
     7
 10
49.365676590006153
 20
1.717923463867866
 30
0.0
 11
49.394343439194628
 21
1.717923463867866
 31
0.0
  0
LINE
  5
40468
  8
OBJ
  6
HIDDEN
 62
     7
 10
49.365676590006153
 20
1.797704635467217
 30
0.0
 11
49.394343439194628
 21
1.797704635467217
 31
0.0
  0
ARC
  5
40469
  8
OBJ
  6
HIDDEN
 62
     7
 10
49.327859129528512
 20
1.7306159229859419
 30
0.0
 40
0.0398905857996746
 50
270.0
 51
341.44699546497878
  0
ARC
  5
4046A
  8
OBJ
  6
HIDDEN
 62
     7
 10
49.161648355363212
 20
1.7306159229859419
 30
0.0
 40
0.0398905857996746
 50
198.5530045350211
 51
270.0
  0
LINE
  5
4046B
  8
OBJ
  6
HIDDEN
 62
     7
 10
49.327859129528512
 20
1.6907253371862681
 30
0.0
 11
49.161648355363212
 21
1.6907253371862681
 31
0.0
  0
ARC
  5
4046C
  8
OBJ
  6
HIDDEN
 62
     7
 10
49.394343439194628
 20
1.757814049667537
 30
0.0
 40
0.0398905857996746
 50
270.0
 51
90.0
  0
CIRCLE
  5
4046D
  8
OBJ
  6
CONTINUOUS
 62
     7
 10
49.251251072708691
 20
1.5387180291769
 30
0.0
 40
0.0944379398666538
  0
ARC
  5
4046E
  8
OBJ
  6
CONTINUOUS
 62
     7
 10
49.518699318411059
 20
2.2609793932770681
 30
0.0
 40
0.0755503518933231
 50
0.0
 51
89.999999999999915
  0
CIRCLE
  5
4046F
  8
OBJ
  6
CONTINUOUS
 62
     7
 10
49.353244047764669
 20
2.1627639358157511
 30
0.0
 40
0.0330608339885182
  0
LINE
  5
40470
  8
OBJ
  6
CONTINUOUS
 62
     7
 10
49.26862765364416
 20
2.215649182141072
 30
0.0
 11
49.26862765364416
 21
2.1098786894904231
 31
0.0
  0
CIRCLE
  5
40471
  8
OBJ
  6
CONTINUOUS
 62
     7
 10
49.353244047764669
 20
2.055482436127229
 30
0.0
 40
0.0212447589524025
  0
CIRCLE
  5
40472
  8
OBJ
  6
CONTINUOUS
 62
     7
 10
49.353244047764669
 20
1.9648220138552439
 30
0.0
 40
0.0212447589524025
  0
CIRCLE
  5
40473
  8
OBJ
  6
CONTINUOUS
 62
     7
 10
49.353244047764669
 20
1.8741615915832519
 30
0.0
 40
0.0212447589524025
  0
LINE
  5
40474
  8
OBJ
  6
HIDDEN
 62
     7
 10
49.327859129528512
 20
1.8249027621488141
 30
0.0
 11
49.161648355363212
 21
1.8249027621488141
 31
0.0
  0
LINE
  5
40475
  8
OBJ
  6
CONTINUOUS
 62
     7
 10
49.26862765364416
 20
1.8552740036099229
 30
0.0
 11
49.26862765364416
 21
2.0592599537219032
 31
0.0
  0
LINE
  5
40476
  8
OBJ
  6
HIDDEN
 62
     7
 10
49.283737724022828
 20
1.8711395775075199
 30
0.0
 11
49.283737724022828
 21
2.0675704924301659
 31
0.0
  0
LINE
  5
40477
  8
OBJ
  6
CONTINUOUS
 62
     7
 10
49.140947558944447
 20
2.5563812691799681
 30
0.0
 11
49.140947558944447
 21
2.487932650364614
 31
0.0
  0
POINT
  5
40478
  8
OBJ
  6
BYBLOCK
 62
     0
 10
49.632024846251042
 20
2.487932650364614
 30
0.0
  0
LINE
  5
4047B
  8
0
 10
49.778617700845878
 20
3.786873535781893
 30
0.0
 11
49.778617700845878
 21
3.1220056069409159
 31
0.0
  0
TEXT
  5
4047C
  8
OBJ
  6
CONTINUOUS
 10
49.860486125683579
 20
3.6529780195824468
 30
0.0
 40
0.0661329443497673
  1
LINE
  0
LINE
  5
40486
  8
OBJ
  6
CONTINUOUS
 10
49.465812855871512
 20
4.6528293137484873
 30
0.0
 11
49.522773020004728
 21
4.5958691496152637
 31
0.0
  0
CIRCLE
  5
40487
  8
OBJ
  6
CONTINUOUS
 10
49.494292937938113
 20
4.6243492316818831
 30
0.0
 40
0.0402769183160991
  0
LINE
  5
40488
  8
OBJ
  6
CONTINUOUS
 10
49.571382618388689
 20
4.5383783887053823
 30
0.0
 11
49.571382618388668
 21
4.7472519441699772
 31
0.0
  0
CIRCLE
  5
40489
  8
OBJ
  6
CONTINUOUS
 10
49.304510453982097
 20
4.6243492316818831
 30
0.0
 40
0.0402769183160991
  0
LINE
  5
4048A
  8
OBJ
  6
CONTINUOUS
 10
49.276030371915489
 20
4.6528293137484873
 30
0.0
 11
49.332990536048712
 21
4.5958691496152637
 31
0.0
  0
POINT
  5
4048B
  8
OBJ
  6
BYBLOCK
 62
     0
 10
49.632024846251042
 20
5.8334099157247588
 30
0.0
  0
LINE
  5
4048C
  8
OBJ
  6
CONTINUOUS
 62
     7
 10
49.140947558944447
 20
5.8334099157247588
 30
0.0
 11
49.140947558944447
 21
5.7649612969094024
 31
0.0
  0
ARC
  5
4048D
  8
OBJ
  6
CONTINUOUS
 62
     7
 10
49.518699318411059
 20
6.1072043909861513
 30
0.0
 40
0.0755503518933231
 50
270.0
 51
0.0
  0
ARC
  5
4048E
  8
OBJ
  6
CONTINUOUS
 10
49.258817853710433
 20
6.2716980523497554
 30
0.0
 40
0.0120880563029317
 50
180.0
 51
269.99999999999972
  0
ARC
  5
4048F
  8
OBJ
  6
CONTINUOUS
 10
49.35250880948724
 20
6.2716980523497483
 30
0.0
 40
0.0120880563029317
 50
270.0
 51
0.0
  0
LINE
  5
40490
  8
OBJ
  6
CONTINUOUS
 10
49.304510453982097
 20
6.2060363406656718
 30
0.0
 11
49.266967073172331
 21
6.1843606596488714
 31
0.0
  0
LINE
  5
40491
  8
OBJ
  6
CONTINUOUS
 10
49.342053834791841
 20
6.1843606596488714
 30
0.0
 11
49.304510453982097
 21
6.2060363406656718
 31
0.0
  0
LINE
  5
40492
  8
OBJ
  6
CONTINUOUS
 10
49.258817853710433
 20
6.2596099960468168
 30
0.0
 11
49.35250880948724
 21
6.2596099960468168
 31
0.0
  0
LINE
  5
40493
  8
OBJ
  6
CONTINUOUS
 10
49.266967073172331
 20
6.141009297615275
 30
0.0
 11
49.304510453982097
 21
6.1193336165984791
 31
0.0
  0
LINE
  5
40494
  8
OBJ
  6
CONTINUOUS
 10
49.304510453982097
 20
6.1193336165984791
 30
0.0
 11
49.342053834791841
 21
6.141009297615275
 31
0.0
  0
LINE
  5
40495
  8
OBJ
  6
CONTINUOUS
 10
49.342053834791841
 20
6.141009297615275
 30
0.0
 11
49.342053834791841
 21
6.1843606596488714
 31
0.0
  0
LINE
  5
40496
  8
OBJ
  6
CONTINUOUS
 10
49.266967073172331
 20
6.1843606596488714
 30
0.0
 11
49.266967073172331
 21
6.141009297615275
 31
0.0
  0
CIRCLE
  5
40497
  8
OBJ
  6
CONTINUOUS
 10
49.30451045398209
 20
6.1626849786320701
 30
0.0
 40
0.028168665929907
  0
CIRCLE
  5
40498
  8
OBJ
  6
CONTINUOUS
 62
     7
 10
49.30451045398209
 20
6.1626849786320701
 30
0.0
 40
0.0779075228723947
  0
LINE
  5
40499
  8
OBJ
  6
HIDDEN
 62
     7
 10
49.283737724022828
 20
7.1150460852430788
 30
0.0
 11
49.283737724022828
 21
7.3114770001657261
 31
0.0
  0
LINE
  5
4049A
  8
OBJ
  6
CONTINUOUS
 62
     7
 10
49.26862765364416
 20
7.099180511345482
 30
0.0
 11
49.26862765364416
 21
7.3031664614574616
 31
0.0
  0
CIRCLE
  5
4049B
  8
OBJ
  6
CONTINUOUS
 62
     7
 10
49.251251072708691
 20
6.7826245369124587
 30
0.0
 40
0.0944379398666538
  0
TEXT
  5
4049C
  8
OBJ
  6
CONTINUOUS
 10
49.458730290963167
 20
6.4694372417646608
 30
0.0
 40
0.05
  1
HI
  7
SIMPLEX
  0
LINE
  5
4049D
  8
OBJ
  6
CONTINUOUS
 10
49.448600337666448
 20
6.4493924800028557
 30
0.0
 11
49.54229129344327
 21
6.4493924800028557
 31
0.0
  0
LINE
  5
4049E
  8
OBJ
  6
CONTINUOUS
 10
49.54229129344327
 20
6.5340194969653664
 30
0.0
 11
49.448600337666448
 21
6.5340194969653664
 31
0.0
  0
LINE
  5
4049F
  8
OBJ
  6
CONTINUOUS
 10
49.531836318747857
 20
6.3841431436049083
 30
0.0
 11
49.494292937938113
 21
6.405818824621706
 31
0.0
  0
CIRCLE
  5
404A0
  8
OBJ
  6
CONTINUOUS
 10
49.494292937938113
 20
6.3624674625881088
 30
0.0
 40
0.028168665929907
  0
LINE
  5
404A1
  8
OBJ
  6
CONTINUOUS
 10
49.494292937938113
 20
6.405818824621706
 30
0.0
 11
49.456749557128362
 21
6.3841431436049083
 31
0.0
  0
LINE
  5
404A2
  8
OBJ
  6
CONTINUOUS
 10
49.43651228136352
 20
6.5219314406624358
 30
0.0
 11
49.43651228136352
 21
6.4614805363057943
 31
0.0
  0
ARC
  5
404A3
  8
OBJ
  6
CONTINUOUS
 10
49.448600337666448
 20
6.4614805363057943
 30
0.0
 40
0.0120880563029317
 50
180.0
 51
269.99999999999972
  0
ARC
  5
404A4
  8
OBJ
  6
CONTINUOUS
 10
49.448600337666448
 20
6.5219314406624358
 30
0.0
 40
0.0120880563029317
 50
90.0
 51
180.0
  0
LINE
  5
404A5
  8
OBJ
  6
CONTINUOUS
 10
49.456749557128362
 20
6.3841431436049083
 30
0.0
 11
49.456749557128362
 21
6.3407917815713093
 31
0.0
  0
LINE
  5
404A6
  8
OBJ
  6
CONTINUOUS
 10
49.554379349746199
 20
6.4614805363057872
 30
0.0
 11
49.554379349746199
 21
6.5219314406624358
 31
0.0
  0
ARC
  5
404A7
  8
OBJ
  6
CONTINUOUS
 10
49.54229129344327
 20
6.4614805363057872
 30
0.0
 40
0.0120880563029317
 50
270.0
 51
0.0
  0
ARC
  5
404A8
  8
OBJ
  6
CONTINUOUS
 10
49.54229129344327
 20
6.5219314406624358
 30
0.0
 40
0.0120880563029317
 50
0.0
 51
90.0
  0
LINE
  5
404A9
  8
OBJ
  6
CONTINUOUS
 10
49.531836318747857
 20
6.3407917815713093
 30
0.0
 11
49.531836318747857
 21
6.3841431436049083
 31
0.0
  0
LINE
  5
404AA
  8
OBJ
  6
CONTINUOUS
 10
49.248527000080607
 20
6.4347218915041786
 30
0.0
 11
49.360493907883551
 21
6.4347218915041786
 31
0.0
  0
LINE
  5
404AB
  8
OBJ
  6
CONTINUOUS
 10
49.360493907883551
 20
6.562306993454043
 30
0.0
 11
49.248527000080607
 21
6.562306993454043
 31
0.0
  0
ARC
  5
404AC
  8
OBJ
  6
CONTINUOUS
 10
49.258817853710433
 20
6.3321489567063969
 30
0.0
 40
0.0120880563029317
 50
90.0
 51
180.0
  0
ARC
  5
404AD
  8
OBJ
  6
CONTINUOUS
 10
49.248527000080607
 20
6.4468099478071119
 30
0.0
 40
0.0120880563029317
 50
180.0
 51
270.0
  0
ARC
  5
404AE
  8
OBJ
  6
CONTINUOUS
 10
49.248527000080607
 20
6.5502189371511053
 30
0.0
 40
0.0120880563029317
 50
90.0
 51
180.0
  0
LINE
  5
404AF
  8
OBJ
  6
CONTINUOUS
 10
49.236438943777671
 20
6.5502189371511124
 30
0.0
 11
49.236438943777671
 21
6.4468099478071119
 31
0.0
  0
ARC
  5
404B0
  8
OBJ
  6
CONTINUOUS
 10
49.16272632553121
 20
6.5219314406624358
 30
0.0
 40
0.0120880563029317
 50
0.0
 51
90.0
  0
ARC
  5
404B1
  8
OBJ
  6
CONTINUOUS
 10
49.16272632553121
 20
6.4614805363057872
 30
0.0
 40
0.0120880563029317
 50
270.0
 51
0.0
  0
LINE
  5
404B2
  8
OBJ
  6
CONTINUOUS
 10
49.174814381834153
 20
6.4614805363057872
 30
0.0
 11
49.174814381834153
 21
6.5219314406624358
 31
0.0
  0
LINE
  5
404B3
  8
OBJ
  6
CONTINUOUS
 10
49.151969149428247
 20
6.3407917815713093
 30
0.0
 11
49.151969149428247
 21
6.3841431436049083
 31
0.0
  0
ARC
  5
404B4
  8
OBJ
  6
CONTINUOUS
 10
49.360493907883551
 20
6.4468099478071119
 30
0.0
 40
0.0120880563029317
 50
270.0
 51
0.0
  0
ARC
  5
404B5
  8
OBJ
  6
CONTINUOUS
 10
49.360493907883551
 20
6.5502189371511124
 30
0.0
 40
0.0120880563029317
 50
0.0
 51
90.0
  0
LINE
  5
404B6
  8
OBJ
  6
CONTINUOUS
 10
49.372581964186502
 20
6.4468099478071119
 30
0.0
 11
49.372581964186502
 21
6.5502189371511124
 31
0.0
  0
TEXT
  5
404B7
  8
OBJ
  6
CONTINUOUS
 10
49.273462730546179
 20
6.4716544876706363
 30
0.0
 40
0.0568138646237789
  1
In
  7
SIMPLEX
  0
ARC
  5
404B8
  8
OBJ
  6
CONTINUOUS
 10
49.35250880948724
 20
6.3321489567063969
 30
0.0
 40
0.0120880563029317
 50
0.0
 51
90.0
  0
LINE
  5
404B9
  8
OBJ
  6
CONTINUOUS
 10
49.35250880948724
 20
6.3442370130093266
 30
0.0
 11
49.258817853710433
 21
6.3442370130093266
 31
0.0
  0
LINE
  5
404BA
  8
OBJ
  6
CONTINUOUS
 10
49.30451045398209
 20
6.3453402793695979
 30
0.0
 11
49.30451045398209
 21
6.4347218915041786
 31
0.0
  0
ARC
  5
404BB
  8
OBJ
  6
HIDDEN
 62
     7
 10
49.394343439194628
 20
7.0017205574030958
 30
0.0
 40
0.0398905857996746
 50
270.0
 51
90.0
  0
LINE
  5
404BC
  8
OBJ
  6
HIDDEN
 62
     7
 10
49.327859129528512
 20
6.934631844921828
 30
0.0
 11
49.161648355363212
 21
6.934631844921828
 31
0.0
  0
LINE
  5
404BD
  8
OBJ
  6
HIDDEN
 62
     7
 10
49.327859129528512
 20
7.0688092698843734
 30
0.0
 11
49.161648355363212
 21
7.0688092698843734
 31
0.0
  0
ARC
  5
404BE
  8
OBJ
  6
HIDDEN
 62
     7
 10
49.161648355363212
 20
6.9745224307215006
 30
0.0
 40
0.0398905857996746
 50
198.5530045350211
 51
270.0
  0
ARC
  5
404BF
  8
OBJ
  6
HIDDEN
 62
     7
 10
49.161648355363212
 20
7.0289186840846938
 30
0.0
 40
0.0398905857996746
 50
90.0
 51
161.44699546497839
  0
ARC
  5
404C0
  8
OBJ
  6
HIDDEN
 62
     7
 10
49.327859129528512
 20
7.0289186840846938
 30
0.0
 40
0.0398905857996746
 50
18.553004535021518
 51
90.0
  0
ARC
  5
404C1
  8
OBJ
  6
HIDDEN
 62
     7
 10
49.327859129528512
 20
6.9745224307215006
 30
0.0
 40
0.0398905857996746
 50
270.0
 51
341.44699546497878
  0
CIRCLE
  5
404C2
  8
OBJ
  6
CONTINUOUS
 62
     7
 10
49.353244047764669
 20
7.118068099318811
 30
0.0
 40
0.0212447589524025
  0
CIRCLE
  5
404C3
  8
OBJ
  6
CONTINUOUS
 62
     7
 10
49.353244047764669
 20
7.2087285215908041
 30
0.0
 40
0.0212447589524025
  0
LINE
  5
404C4
  8
OBJ
  6
HIDDEN
 62
     7
 10
49.365676590006153
 20
7.0416111432027773
 30
0.0
 11
49.394343439194628
 21
7.0416111432027773
 31
0.0
  0
LINE
  5
404C5
  8
OBJ
  6
HIDDEN
 62
     7
 10
49.365676590006153
 20
6.9618299716034251
 30
0.0
 11
49.394343439194628
 21
6.9618299716034251
 31
0.0
  0
ARC
  5
404C6
  8
OBJ
  6
CONTINUOUS
 62
     7
 10
49.518699318411059
 20
7.504885901012627
 30
0.0
 40
0.0755503518933231
 50
0.0
 51
89.999999999999915
  0
CIRCLE
  5
404C7
  8
OBJ
  6
CONTINUOUS
 62
     7
 10
49.353244047764669
 20
7.2993889438627884
 30
0.0
 40
0.0212447589524025
  0
LINE
  5
404C8
  8
OBJ
  6
CONTINUOUS
 62
     7
 10
49.26862765364416
 20
7.4595556898766322
 30
0.0
 11
49.26862765364416
 21
7.3537851972259816
 31
0.0
  0
CIRCLE
  5
404C9
  8
OBJ
  6
CONTINUOUS
 62
     7
 10
49.353244047764669
 20
7.4066704435513113
 30
0.0
 40
0.0330608339885182
  0
POINT
  5
404CA
  8
OBJ
  6
BYBLOCK
 62
     0
 10
49.632024846251042
 20
7.7318391581001729
 30
0.0
  0
LINE
  5
404CB
  8
OBJ
  6
CONTINUOUS
 62
     7
 10
49.140947558944447
 20
7.8002877769155283
 30
0.0
 11
49.140947558944447
 21
7.7318391581001729
 31
0.0
  0
TEXT
  5
404D0
  8
OBJ
  6
CONTINUOUS
 10
45.539958171799107
 20
4.6007084225398813
 30
0.0
 40
0.04
  1
OR TEST BLOCK
  0
TEXT
  5
404D1
  8
OBJ
  6
CONTINUOUS
 10
45.470242796502021
 20
4.7353863414705124
 30
0.0
 40
0.04
  1
CT SHORTING SWITCH
  0
TEXT
  5
404D9
  8
OBJ
  6
CONTINUOUS
 10
49.695987991105888
 20
4.6007084225398813
 30
0.0
 40
0.04
  1
OR TEST BLOCK
  0
TEXT
  5
404DA
  8
OBJ
  6
CONTINUOUS
 10
49.626272615808801
 20
4.6778401143240087
 30
0.0
 40
0.04
  1
CT SHORTING SWITCH
  0
TEXT
  5
404DB
  8
OBJ
  6
CONTINUOUS
 10
45.539958171799107
 20
-0.643198085195678
 30
0.0
 40
0.04
  1
OR TEST BLOCK
  0
TEXT
  5
404DC
  8
OBJ
  6
CONTINUOUS
 10
45.470242796502021
 20
-0.5660663934115499
 30
0.0
 40
0.04
  1
CT SHORTING SWITCH
  0
TEXT
  5
404DE
  8
OBJ
  6
CONTINUOUS
 10
49.626272615808787
 20
-0.5660663934115499
 30
0.0
 40
0.04
  1
CT SHORTING SWITCH
  0
TEXT
  5
404DF
  8
OBJ
  6
CONTINUOUS
 10
49.695987991105881
 20
-0.643198085195678
 30
0.0
 40
0.04
  1
OR TEST BLOCK
  0
LINE
  5
404E0
  8
OBJ
  6
CONTINUOUS
 39
1.4579572651114241
 10
45.722353277557481
 20
3.001389683358282
 30
0.0
 11
45.746029273270338
 21
3.0277189326015361
 31
0.0
  0
LINE
  5
404E1
  8
OBJ
  6
CONTINUOUS
 39
1.4579572651114241
 10
45.722353277557481
 20
3.0006531608336351
 30
0.0
 11
45.746029273270338
 21
2.974323911590381
 31
0.0
  0
SOLID
  5
404E2
  8
OBJ
  6
BYBLOCK
 62
     0
 10
45.390483202381589
 20
2.993168608357617
 30
0.0
 11
45.390483202381589
 21
3.009040515001554
 31
0.0
 12
45.342867482449762
 22
3.0011045616795919
 32
0.0
 13
45.342867482449762
 23
3.0011045616795919
 33
0.0
  0
LINE
  5
404E3
  8
OBJ
  6
BYBLOCK
 62
     0
 10
45.354521841084072
 20
3.001389683358282
 30
0.0
 11
45.722353277557481
 21
3.001389683358282
 31
0.0
  0
LINE
  5
404E5
  8
OBJ
  6
CONTINUOUS
 39
1.4579572651114241
 10
49.878383096864269
 20
3.001389683358282
 30
0.0
 11
49.902059092577119
 21
3.0277189326015361
 31
0.0
  0
LINE
  5
404E6
  8
OBJ
  6
CONTINUOUS
 39
1.4579572651114241
 10
49.878383096864269
 20
3.0006531608336351
 30
0.0
 11
49.902059092577119
 21
2.974323911590381
 31
0.0
  0
TEXT
  5
404E7
  8
OBJ
  6
CONTINUOUS
 10
49.589350706804623
 20
3.0310119370184379
 30
0.0
 40
0.0495997082623255
  1
IMPORT
  7
SIMPLEX
  0
SOLID
  5
404E8
  8
OBJ
  6
BYBLOCK
 62
     0
 10
49.546513021688369
 20
2.993168608357617
 30
0.0
 11
49.546513021688369
 21
3.009040515001554
 31
0.0
 12
49.49889730175655
 22
3.0011045616795919
 32
0.0
 13
49.49889730175655
 23
3.0011045616795919
 33
0.0
  0
TEXT
  5
404E9
  8
OBJ
  6
CONTINUOUS
 10
49.580797372286519
 20
2.9094384781770861
 30
0.0
 40
0.0495997082623255
  1
EXPORT
  7
SIMPLEX
  0
LINE
  5
404EA
  8
OBJ
  6
BYBLOCK
 62
     0
 10
49.51055166039086
 20
3.001389683358282
 30
0.0
 11
49.878383096864269
 21
3.001389683358282
 31
0.0
  0
LINE
  5
404EB
  8
OBJ
  6
CONTINUOUS
 39
1.4579572651114241
 10
45.722353277557481
 20
-2.242516824377276
 30
0.0
 11
45.746029273270338
 21
-2.2161875751340219
 31
0.0
  0
LINE
  5
404EC
  8
OBJ
  6
CONTINUOUS
 39
1.4579572651114241
 10
45.722353277557481
 20
-2.2432533469019238
 30
0.0
 11
45.746029273270338
 21
-2.2695825961451779
 31
0.0
  0
TEXT
  5
404ED
  8
OBJ
  6
CONTINUOUS
 10
45.433320887497842
 20
-2.212894570717121
 30
0.0
 40
0.0495997082623255
  1
IMPORT
  7
SIMPLEX
  0
SOLID
  5
404EE
  8
OBJ
  6
BYBLOCK
 62
     0
 10
45.390483202381589
 20
-2.2507378993779419
 30
0.0
 11
45.390483202381589
 21
-2.234865992734004
 31
0.0
 12
45.342867482449762
 22
-2.2428019460559661
 32
0.0
 13
45.342867482449762
 23
-2.2428019460559661
 33
0.0
  0
TEXT
  5
404EF
  8
OBJ
  6
CONTINUOUS
 10
45.424767552979752
 20
-2.3344680295584732
 30
0.0
 40
0.0495997082623255
  1
EXPORT
  7
SIMPLEX
  0
LINE
  5
404F0
  8
OBJ
  6
BYBLOCK
 62
     0
 10
45.354521841084072
 20
-2.242516824377276
 30
0.0
 11
45.722353277557481
 21
-2.242516824377276
 31
0.0
  0
LINE
  5
404F1
  8
OBJ
  6
CONTINUOUS
 39
1.4579572651114241
 10
49.878383096864269
 20
-2.2432533469019238
 30
0.0
 11
49.902059092577119
 21
-2.2695825961451779
 31
0.0
  0
LINE
  5
404F2
  8
OBJ
  6
CONTINUOUS
 39
1.4579572651114241
 10
49.878383096864269
 20
-2.242516824377276
 30
0.0
 11
49.902059092577119
 21
-2.2161875751340219
 31
0.0
  0
TEXT
  5
404F3
  8
OBJ
  6
CONTINUOUS
 10
49.589350706804623
 20
-2.212894570717121
 30
0.0
 40
0.0495997082623255
  1
IMPORT
  7
SIMPLEX
  0
LINE
  5
404F4
  8
OBJ
  6
BYBLOCK
 62
     0
 10
49.51055166039086
 20
-2.242516824377276
 30
0.0
 11
49.878383096864269
 21
-2.242516824377276
 31
0.0
  0
TEXT
  5
404F5
  8
OBJ
  6
CONTINUOUS
 10
49.580797372286519
 20
-2.3344680295584732
 30
0.0
 40
0.0495997082623255
  1
EXPORT
  7
SIMPLEX
  0
SOLID
  5
404F6
  8
OBJ
  6
BYBLOCK
 62
     0
 10
49.546513021688369
 20
-2.2507378993779419
 30
0.0
 11
49.546513021688369
 21
-2.234865992734004
 31
0.0
 12
49.49889730175655
 22
-2.2428019460559661
 32
0.0
 13
49.49889730175655
 23
-2.2428019460559661
 33
0.0
  0
LINE
  5
40501
  8
0
 10
47.708873354569199
 20
-1.217285228754017
 30
0.0
 11
47.577468009051259
 21
-1.2172852287540159
 31
0.0
  0
LINE
  5
40502
  8
0
 10
47.577468009051273
 20
-1.217285228754017
 30
0.0
 11
47.577468009051273
 21
-1.3539981621998891
 31
0.0
  0
LINE
  5
40503
  8
0
 10
47.643170681810233
 20
-1.217285228754017
 30
0.0
 11
47.643170681810233
 21
-0.8340100217591643
 31
0.0
  0
LINE
  5
40505
  8
0
 10
47.708873354569207
 20
-0.8340100217591643
 30
0.0
 11
47.643170681810233
 21
-0.8340100217591643
 31
0.0
  0
LINE
  5
40508
  8
0
 10
47.708873354569199
 20
-1.6009227945737741
 30
0.0
 11
47.577468009051259
 21
-1.6009227945737741
 31
0.0
  0
LINE
  5
4050A
  8
0
 10
47.643170681810233
 20
-1.6009227945737741
 30
0.0
 11
47.64317068181024
 21
-1.8936754155295861
 31
0.0
  0
LINE
  5
40517
  8
0
 10
49.304642719870792
 20
4.6863411627774081
 30
0.0
 11
49.304642719870778
 21
4.6646259328225721
 31
0.0
  0
LINE
  5
40518
  8
0
 10
49.304642719870792
 20
-0.5575653449581495
 30
0.0
 11
49.304642719870792
 21
-0.5792805749129871
 31
0.0
  0
ARC
  5
40F08
  8
0
 10
43.421438189744478
 20
-1.8936754155295861
 30
0.0
 40
0.0150000000000006
 50
180.0
 51
0.0
  0
ARC
  5
40F09
  8
0
 10
43.421438189744478
 20
-1.8936754155295861
 30
0.0
 40
0.0150000000000006
 50
0.0
 51
180.0
  0
ARC
  5
40F0A
  8
0
 10
43.110659537788919
 20
-2.0259413042291219
 30
0.0
 40
0.0150000000000006
 50
180.0
 51
0.0
  0
ARC
  5
40F0B
  8
0
 10
43.110659537788919
 20
-2.0259413042291219
 30
0.0
 40
0.0150000000000006
 50
0.0
 51
180.0
  0
ARC
  5
40F0C
  8
0
 10
43.729109414257657
 20
-1.7614095268300509
 30
0.0
 40
0.0150000000000006
 50
180.0
 51
0.0
  0
ARC
  5
40F0D
  8
0
 10
43.729109414257657
 20
-1.7614095268300509
 30
0.0
 40
0.0150000000000006
 50
0.0
 51
180.0
  0
ARC
  5
40F0E
  8
0
 10
43.245172310749233
 20
-1.6291436381305151
 30
0.0
 40
0.0150000000000006
 50
180.0
 51
0.0
  0
ARC
  5
40F0F
  8
0
 10
43.245172310749233
 20
-1.6291436381305151
 30
0.0
 40
0.0150000000000006
 50
0.0
 51
180.0
  0
ARC
  5
40F10
  8
0
 10
42.934393658793667
 20
-1.6291436381305151
 30
0.0
 40
0.0150000000000006
 50
180.0
 51
0.0
  0
ARC
  5
40F11
  8
0
 10
42.934393658793667
 20
-1.6291436381305151
 30
0.0
 40
0.0150000000000006
 50
0.0
 51
180.0
  0
ARC
  5
40F12
  8
0
 10
43.552843535262419
 20
-1.6291436381305151
 30
0.0
 40
0.0150000000000006
 50
180.0
 51
0.0
  0
ARC
  5
40F13
  8
0
 10
43.552843535262419
 20
-1.6291436381305151
 30
0.0
 40
0.0150000000000006
 50
0.0
 51
180.0
  0
ARC
  5
40F14
  8
0
 10
43.245172310749233
 20
-0.9465564292494779
 30
0.0
 40
0.0150000000000006
 50
180.0
 51
0.0
  0
ARC
  5
40F15
  8
0
 10
43.245172310749233
 20
-0.9465564292494779
 30
0.0
 40
0.0150000000000006
 50
0.0
 51
180.0
  0
ARC
  5
40F16
  8
0
 10
42.81063684450276
 20
-0.9465564292494779
 30
0.0
 40
0.0150000000000006
 50
180.0
 51
0.0
  0
ARC
  5
40F17
  8
0
 10
42.81063684450276
 20
-0.9465564292494779
 30
0.0
 40
0.0150000000000006
 50
0.0
 51
180.0
  0
ARC
  5
40F18
  8
0
 10
42.934393658793667
 20
-0.9465564292494779
 30
0.0
 40
0.0150000000000006
 50
180.0
 51
0.0
  0
ARC
  5
40F19
  8
0
 10
42.934393658793667
 20
-0.9465564292494779
 30
0.0
 40
0.0150000000000006
 50
0.0
 51
180.0
  0
ARC
  5
40F1A
  8
0
 10
47.64317068181024
 20
-1.8936754155295861
 30
0.0
 40
0.0150000000000006
 50
180.0
 51
0.0
  0
ARC
  5
40F1B
  8
0
 10
47.64317068181024
 20
-1.8936754155295861
 30
0.0
 40
0.0150000000000006
 50
0.0
 51
180.0
  0
ARC
  5
40F1C
  8
0
 10
47.401202130055992
 20
-2.025941304229121
 30
0.0
 40
0.0150000000000006
 50
180.0
 51
0.0
  0
ARC
  5
40F1D
  8
0
 10
47.401202130055992
 20
-2.025941304229121
 30
0.0
 40
0.0150000000000006
 50
0.0
 51
180.0
  0
ARC
  5
40F1E
  8
0
 10
47.643170681810233
 20
-1.6009227945737741
 30
0.0
 40
0.0150000000000006
 50
0.0
 51
180.0
  0
ARC
  5
40F1F
  8
0
 10
47.643170681810233
 20
-1.6009227945737741
 30
0.0
 40
0.0150000000000006
 50
180.0
 51
0.0
  0
ARC
  5
40F20
  8
0
 10
47.885139233564438
 20
-1.7614095268300509
 30
0.0
 40
0.0150000000000006
 50
180.0
 51
0.0
  0
ARC
  5
40F21
  8
0
 10
47.885139233564438
 20
-1.7614095268300509
 30
0.0
 40
0.0150000000000006
 50
0.0
 51
180.0
  0
ARC
  5
40F22
  8
0
 10
47.643170681810233
 20
-1.217285228754017
 30
0.0
 40
0.0150000000000006
 50
180.0
 51
0.0
  0
ARC
  5
40F23
  8
0
 10
47.643170681810233
 20
-1.217285228754017
 30
0.0
 40
0.0150000000000006
 50
0.0
 51
180.0
  0
ARC
  5
40F24
  8
0
 10
47.401202130056021
 20
-1.217285228754017
 30
0.0
 40
0.0150000000000006
 50
180.0
 51
0.0
  0
ARC
  5
40F25
  8
0
 10
47.401202130056021
 20
-1.217285228754017
 30
0.0
 40
0.0150000000000006
 50
0.0
 51
180.0
  0
ARC
  5
40F26
  8
0
 10
43.369092462416383
 20
-0.0529684681934004
 30
0.0
 40
0.0150000000000006
 50
180.0
 51
0.0
  0
ARC
  5
40F27
  8
0
 10
43.369092462416383
 20
-0.0529684681934004
 30
0.0
 40
0.0150000000000006
 50
0.0
 51
180.0
  0
ARC
  5
40F28
  8
0
 10
43.729109414257657
 20
-0.0529684681934004
 30
0.0
 40
0.0150000000000006
 50
180.0
 51
0.0
  0
ARC
  5
40F29
  8
0
 10
43.729109414257657
 20
-0.0529684681934004
 30
0.0
 40
0.0150000000000006
 50
0.0
 51
180.0
  0
ARC
  5
40F2A
  8
0
 10
43.552843535262433
 20
-0.0529684681934004
 30
0.0
 40
0.0150000000000006
 50
180.0
 51
0.0
  0
ARC
  5
40F2B
  8
0
 10
43.552843535262433
 20
-0.0529684681934004
 30
0.0
 40
0.0150000000000006
 50
0.0
 51
180.0
  0
ARC
  5
40F2C
  8
0
 10
43.729109414257657
 20
0.1498056455376604
 30
0.0
 40
0.0150000000000006
 50
180.0
 51
0.0
  0
ARC
  5
40F2D
  8
0
 10
43.729109414257657
 20
0.1498056455376604
 30
0.0
 40
0.0150000000000006
 50
0.0
 51
180.0
  0
ARC
  5
40F2E
  8
0
 10
43.369092462416383
 20
0.1498056455376604
 30
0.0
 40
0.0150000000000006
 50
180.0
 51
0.0
  0
ARC
  5
40F2F
  8
0
 10
43.369092462416383
 20
0.1498056455376604
 30
0.0
 40
0.0150000000000006
 50
0.0
 51
180.0
  0
ARC
  5
40F30
  8
0
 10
43.552843535262433
 20
0.1498056455376604
 30
0.0
 40
0.0150000000000006
 50
180.0
 51
0.0
  0
ARC
  5
40F31
  8
0
 10
43.552843535262433
 20
0.1498056455376604
 30
0.0
 40
0.0150000000000006
 50
0.0
 51
180.0
  0
ARC
  5
40F32
  8
0
 10
47.708873354569207
 20
-0.0529684681934004
 30
0.0
 40
0.0150000000000006
 50
180.0
 51
0.0
  0
ARC
  5
40F33
  8
0
 10
47.708873354569207
 20
-0.0529684681934004
 30
0.0
 40
0.0150000000000006
 50
0.0
 51
180.0
  0
ARC
  5
40F34
  8
0
 10
47.885139233564438
 20
-0.0529684681934004
 30
0.0
 40
0.0150000000000006
 50
180.0
 51
0.0
  0
ARC
  5
40F35
  8
0
 10
47.885139233564438
 20
-0.0529684681934004
 30
0.0
 40
0.0150000000000006
 50
0.0
 51
180.0
  0
ARC
  5
40F36
  8
0
 10
47.525122281723156
 20
-0.0529684681934004
 30
0.0
 40
0.0150000000000006
 50
180.0
 51
0.0
  0
ARC
  5
40F37
  8
0
 10
47.525122281723156
 20
-0.0529684681934004
 30
0.0
 40
0.0150000000000006
 50
0.0
 51
180.0
  0
ARC
  5
40F38
  8
0
 10
47.525122281723156
 20
0.1498056455376604
 30
0.0
 40
0.0150000000000006
 50
180.0
 51
0.0
  0
ARC
  5
40F39
  8
0
 10
47.525122281723156
 20
0.1498056455376604
 30
0.0
 40
0.0150000000000006
 50
0.0
 51
180.0
  0
ARC
  5
40F3A
  8
0
 10
47.708873354569207
 20
0.1498056455376604
 30
0.0
 40
0.0150000000000006
 50
180.0
 51
0.0
  0
ARC
  5
40F3B
  8
0
 10
47.708873354569207
 20
0.1498056455376604
 30
0.0
 40
0.0150000000000006
 50
0.0
 51
180.0
  0
ARC
  5
40F3C
  8
0
 10
47.885139233564438
 20
0.1498056455376604
 30
0.0
 40
0.0150000000000006
 50
180.0
 51
0.0
  0
ARC
  5
40F3D
  8
0
 10
47.885139233564438
 20
0.1498056455376604
 30
0.0
 40
0.0150000000000006
 50
0.0
 51
180.0
  0
ARC
  5
40F3E
  8
0
 10
43.191856413752006
 20
3.6147628696050429
 30
0.0
 40
0.0150000000000006
 50
180.0
 51
0.0
  0
ARC
  5
40F3F
  8
0
 10
43.191856413752006
 20
3.6147628696050429
 30
0.0
 40
0.0150000000000006
 50
0.0
 51
180.0
  0
ARC
  5
40F40
  8
0
 10
43.729109414257657
 20
3.4824969809055082
 30
0.0
 40
0.0150000000000006
 50
180.0
 51
0.0
  0
ARC
  5
40F41
  8
0
 10
43.729109414257657
 20
3.4824969809055082
 30
0.0
 40
0.0150000000000006
 50
0.0
 51
180.0
  0
ARC
  5
40F42
  8
0
 10
43.552843535262433
 20
3.3502310922059721
 30
0.0
 40
0.0150000000000006
 50
180.0
 51
0.0
  0
ARC
  5
40F43
  8
0
 10
43.552843535262433
 20
3.3502310922059721
 30
0.0
 40
0.0150000000000006
 50
0.0
 51
180.0
  0
ARC
  5
40F44
  8
0
 10
43.369092462416383
 20
3.2179652035064361
 30
0.0
 40
0.0150000000000006
 50
180.0
 51
0.0
  0
ARC
  5
40F45
  8
0
 10
43.369092462416383
 20
3.2179652035064361
 30
0.0
 40
0.0150000000000006
 50
0.0
 51
180.0
  0
ARC
  5
40F46
  8
0
 10
47.525122281723156
 20
3.2179652035064361
 30
0.0
 40
0.0150000000000006
 50
180.0
 51
0.0
  0
ARC
  5
40F47
  8
0
 10
47.525122281723156
 20
3.2179652035064361
 30
0.0
 40
0.0150000000000006
 50
0.0
 51
180.0
  0
ARC
  5
40F48
  8
0
 10
47.708873354569207
 20
3.3502310922059721
 30
0.0
 40
0.0150000000000006
 50
180.0
 51
0.0
  0
ARC
  5
40F49
  8
0
 10
47.708873354569207
 20
3.3502310922059721
 30
0.0
 40
0.0150000000000006
 50
0.0
 51
180.0
  0
ARC
  5
40F4A
  8
0
 10
47.885139233564438
 20
3.4824969809055082
 30
0.0
 40
0.0150000000000006
 50
180.0
 51
0.0
  0
ARC
  5
40F4B
  8
0
 10
47.885139233564438
 20
3.4824969809055082
 30
0.0
 40
0.0150000000000006
 50
0.0
 51
180.0
  0
ARC
  5
40F4C
  8
0
 10
43.729109414257657
 20
5.3937121532732188
 30
0.0
 40
0.0150000000000006
 50
180.0
 51
0.0
  0
ARC
  5
40F4D
  8
0
 10
43.729109414257657
 20
5.3937121532732188
 30
0.0
 40
0.0150000000000006
 50
0.0
 51
180.0
  0
ARC
  5
40F4E
  8
0
 10
43.729109414257657
 20
5.190938039542158
 30
0.0
 40
0.0150000000000006
 50
180.0
 51
0.0
  0
ARC
  5
40F4F
  8
0
 10
43.729109414257657
 20
5.190938039542158
 30
0.0
 40
0.0150000000000006
 50
0.0
 51
180.0
  0
ARC
  5
40F50
  8
0
 10
43.369092462416383
 20
5.190938039542158
 30
0.0
 40
0.0150000000000006
 50
180.0
 51
0.0
  0
ARC
  5
40F51
  8
0
 10
43.369092462416383
 20
5.190938039542158
 30
0.0
 40
0.0150000000000006
 50
0.0
 51
180.0
  0
ARC
  5
40F52
  8
0
 10
43.552843535262433
 20
5.190938039542158
 30
0.0
 40
0.0150000000000006
 50
180.0
 51
0.0
  0
ARC
  5
40F53
  8
0
 10
43.552843535262433
 20
5.190938039542158
 30
0.0
 40
0.0150000000000006
 50
0.0
 51
180.0
  0
ARC
  5
40F54
  8
0
 10
43.369092462416383
 20
5.3937121532732188
 30
0.0
 40
0.0150000000000006
 50
180.0
 51
0.0
  0
ARC
  5
40F55
  8
0
 10
43.369092462416383
 20
5.3937121532732188
 30
0.0
 40
0.0150000000000006
 50
0.0
 51
180.0
  0
ARC
  5
40F56
  8
0
 10
43.552843535262433
 20
5.3937121532732188
 30
0.0
 40
0.0150000000000006
 50
180.0
 51
0.0
  0
ARC
  5
40F57
  8
0
 10
43.552843535262433
 20
5.3937121532732188
 30
0.0
 40
0.0150000000000006
 50
0.0
 51
180.0
  0
ARC
  5
40F58
  8
0
 10
47.525122281723156
 20
5.190938039542158
 30
0.0
 40
0.0150000000000006
 50
180.0
 51
0.0
  0
ARC
  5
40F59
  8
0
 10
47.525122281723156
 20
5.190938039542158
 30
0.0
 40
0.0150000000000006
 50
0.0
 51
180.0
  0
ARC
  5
40F5A
  8
0
 10
47.525122281723156
 20
5.3937121532732188
 30
0.0
 40
0.0150000000000006
 50
180.0
 51
0.0
  0
ARC
  5
40F5B
  8
0
 10
47.525122281723156
 20
5.3937121532732188
 30
0.0
 40
0.0150000000000006
 50
0.0
 51
180.0
  0
ARC
  5
40F5C
  8
0
 10
47.885139233564438
 20
5.190938039542158
 30
0.0
 40
0.0150000000000006
 50
180.0
 51
0.0
  0
ARC
  5
40F5D
  8
0
 10
47.885139233564438
 20
5.190938039542158
 30
0.0
 40
0.0150000000000006
 50
0.0
 51
180.0
  0
ARC
  5
40F5E
  8
0
 10
47.708873354569207
 20
5.190938039542158
 30
0.0
 40
0.0150000000000006
 50
180.0
 51
0.0
  0
ARC
  5
40F5F
  8
0
 10
47.708873354569207
 20
5.190938039542158
 30
0.0
 40
0.0150000000000006
 50
0.0
 51
180.0
  0
ARC
  5
40F60
  8
0
 10
47.885139233564438
 20
5.3937121532732188
 30
0.0
 40
0.0150000000000006
 50
180.0
 51
0.0
  0
ARC
  5
40F61
  8
0
 10
47.885139233564438
 20
5.3937121532732188
 30
0.0
 40
0.0150000000000006
 50
0.0
 51
180.0
  0
ARC
  5
40F62
  8
0
 10
47.708873354569207
 20
5.3937121532732188
 30
0.0
 40
0.0150000000000006
 50
180.0
 51
0.0
  0
ARC
  5
40F63
  8
0
 10
47.708873354569207
 20
5.3937121532732188
 30
0.0
 40
0.0150000000000006
 50
0.0
 51
180.0
  0
ENDSEC
  0
EOF
